Guitar Tabs for Piece 3 - Classical

E|--------------------------------------------0-----------------------------------------------------
B|--0-----0-----0--1--3--0--1-----1-----1--3-----1--0-----0-----0--1--3--0--1-----1-----1-----1-----
G|-----0-----0-----------------0-----0-----------------0-----0-----------------2-----2-----2-----2--
D|--------------------------------------------------------------------------0-----------0-----------
A|--------------------------3-----------3-----------------------------------------------------------
E|--3-----------3-----------------------------------3-----------3-----------------------------------

E|--------------------------------------------0-----0-----------------------------------------------
B|--0-----0-----0--1--3--0--1-----1-----1--3-----1-----1--------0--3--1-----------------------------
G|-----0-----0-----------------0-----0--------------------0--------------2--0-----------------------
D|-----------------------------------------------------------2--0-----0--------0-----0--------------
A|--------------------------3-----------3-----------3-----------------------------------------------
E|--3-----------3-----------------------------------------------------------3-----3-----3-----------

E|--------------------------------------------------------------------------------------------------
B|--0-----------0--1--0-----1-----------1--1--3--1--0-----------0--1--------1-----1-----1-----1-----
G|-----------0-----------2-----------2-----------------------0--------2--0-----2-----2-----2-----2--
D|--------2-----------------------2-----------------------2-----------------0-----------0-----------
A|--------------------------0-----------------------------------------------------------------------
E|--0--------------0--------------------------------0--------------0--------------------------------

E|--------------------------------------------------------------------------------------------------
B|--0-----------0--1--0-----1-----------1--1--3--1--0-----------0--1--------1-----1-----1-----1-----
G|-----------0-----------2-----------2-----------------------0--------2--0-----2-----2-----2-----2--
D|--------2-----------------------2-----------------------2-----------------0-----------0-----------
A|--------------------------0-----------------------------------------------------------------------
E|--0--------------0--------------------------------0--------------0--------------------------------

E|--------------------------------------------0-----------------------------------------------------
B|--0-----0-----0--1--3--0--1-----1-----1--3-----1--0-----0-----0--1--3--0--1-----1-----1-----1-----
G|-----0-----0-----------------0-----0-----------------0-----0-----------------2-----2-----2-----2--
D|--------------------------------------------------------------------------0-----------0-----------
A|--------------------------3-----------3-----------------------------------------------------------
E|--3-----------3-----------------------------------3-----------3-----------------------------------

E|--------------------------------------------0-----0-----------------------------------------------
B|--0-----0-----0--1--3--0--1-----1-----1--3-----1-----1--------0--3--1-----------------------------
G|-----0-----0-----------------0-----0--------------------0--------------2--0-----------------------
D|-----------------------------------------------------------2--0-----0--------0-----0--------------
A|--------------------------3-----------3-----------3-----------------------------------------------
E|--3-----------3-----------------------------------------------------------3-----3-----3-----------




tabs and chords, guitar tabs, music transcription, music technology, deep learning, music information retrieval, transcribe into tabs & chords, chordify, music renditions, songsterr, reverbnation, tabulature, bollywood chords, ultimate guitar, yousician, guitar lessons, acoustic guitar, electric guitar, guitar tuner, 911 tabs