Guitar Tabs for Phrygian

(/) Slide Up  (\) Slide Down  (h) Hammer On  (p) Pull Off  (b) Bend (r) Release (v) Vibrato (x) Muted


E|--------------------------------------------
B|--------------------------------------------
G|-----------------------------------------9--
D|--2--2-----2--2--------5-----2--2--------9--
A|--2--2-----2--2--------5-----2--2--------7--
E|--0--0-----0--0--------3-----0--0-----------

E|-----------------------------------------------------------------------------------------------------
B|-----------------------------------------------------------------------------------------------------
G|-----------------------------------------------------------------------------------------------------
D|--------------------------2--2--2--2--2--2--------------------------------3--3--3--3--2--2--2--2-----
A|--2--2--2--2--2--2--3--3--------------------3--3--2--2--2--2--2--2--3--3--------------------------2--
E|-----------------------------------------------------------------------------------------------------

tabs and chords, guitar tabs, music transcription, music technology, deep learning, music information retrieval, transcribe into tabs & chords, chordify, music renditions, songsterr, reverbnation, tabulature, bollywood chords, ultimate guitar, yousician, guitar lessons, acoustic guitar, electric guitar, guitar tuner, 911 tabs