Guitar Tabs for Phir Mulaaqat

Toh kya hua juda huye
Magar hai khushi mile toh the
E|--------------------------------------------------------------------------------------------------
B|--------------------------5--3---3h-5p3-----------------------------------3--1---1h-3p1-----------
G|------4/5--5-----4--5--------------------5--4--------4-----4-----2--4--------------------4--2-----
D|--2-----------------------------------------------2-----------------------------------------------
A|--------------------------------------------------------------------------------------------------
E|--------------------------------------------------------------------------------------------------

Toh kya hua mude raaste
Kuchh door sang chale toh the
E|-----------------------------------------------------------------------------------------------------
B|--------------------------5--3---3h-5p3--------------------------------------3--1---1h-3p1-----------
G|------4/5--5-----4--5--------------------5--4---------2\4-----4-----2--4--------------------4--2-----
D|--2--------------------------------------------------------------------------------------------------
A|-----------------------------------------------------------------------------------------------------
E|-----------------------------------------------------------------------------------------------------

Dobara milenge kisi mod pe
E|-----------------------------------------------------
B|--------5--5-----3--5--5-----3------3h-5p3-----------
G|--------------------------------5-----------5--4-----
D|---3/5-----------------------------------------------
A|-----------------------------------------------------
E|-----------------------------------------------------

Jo baaki hai woh baat hogi kabhi
E|-----------------------------------------------------
B|-----------------3-----------------------------------
G|------4/5--5--------4---2h-4p2-----------4-----2--4--
D|--2--------------------------------5--5--------------
A|-----------------------------------------------------
E|-----------------------------------------------------

chalo aaj chalte hai hum
E|-----------------------------------------
B|--------------------3--------------------
G|---------4/5--5--------4---2h-4p2-----4--
D|-----2-----------------------------5-----
A|-----------------------------------------
E|-----------------------------------------

phir mulaaqat hogi kabhi
E|--------------------------------------------------
B|-----------------3--------------------------------
G|------4/5--5--------4--2------------2\4-----2--4--
D|-----------------------------5--5-----------------
A|--------------------------------------------------
E|--------------------------------------------------

phir mulaaqat hogi kabhi
E|--------------------------------------------------
B|-----------------3--------------------------------
G|------4/5--5--------4--2------------2/4-----2--2--
D|-----------------------------5--5-----------------
A|--------------------------------------------------
E|--------------------------------------------------

juda ho rahe hai kadam
E|--------------------------------------------------
B|--------------------3-----------------------------
G|---------4/5--5--------4--2---------2/4-----4-----
D|-----2--------------------------5-----------------
A|--------------------------------------------------
E|--------------------------------------------------

phir mulaaqat hogi kabhi
E|-----------------------------------------------------
B|-----------------3-----------------------------------
G|------4/5--5--------4--2------------2/4-----2--2-----
D|-----------------------------5--5--------------------
A|-----------------------------------------------------
E|-----------------------------------------------------

Dukhaun main dil jaate jaate tera
Mera aisa koyi irada nahi
E|-----------------------------------------------------------------------------------------------------------------
B|--------------------3--------------------------3-----------------------3-----------------------------------------
G|--2--2--2-----5--------4-----2--2--2-----5--------5--------------4-----------4-----4-----2-----------------2-----
D|--------------------------------------------------------5--5--------------------------------5-----2-----3--------
A|-----------------------------------------------------------------------------------------------------------------
E|-----------------------------------------------------------------------------------------------------------------

Chhupa loonga main hans ke aansu mere
Yeh teri khushi toh zyada nahi
E|-----------------------------------------------------------------------------------------------------------------
B|-----------------3--------5-----6-----5-----3--------3-----------------------------------3--1---1h-3p1-----------
G|--2--2-----5--------5-----------------------------5--------------------4-----2--4--4--------------------2--2-----
D|------------------------------------------------------------3/5--5-----------------------------------------------
A|-----------------------------------------------------------------------------------------------------------------
E|-----------------------------------------------------------------------------------------------------------------

jo bichde nahi toh fir kya maza
E|-----------------------------------------------------
B|--------5--5-----3--5--5-----3------3h-5p3-----------
G|--------------------------------5-----------5--4-----
D|---3/5-----------------------------------------------
A|-----------------------------------------------------
E|-----------------------------------------------------

jaruri bhi rehni hai thodi kami
E|--------------------------------------------------------
B|--------------------3-----------------------------------
G|------4/5-----5--------4--2------------2/4-----2--4-----
D|--2-----------------------------5--5--------------------
A|--------------------------------------------------------
E|--------------------------------------------------------

nahi hoga kuch bhi khatam
E|-----------------------------------------
B|-----------------3-----------------------
G|---------4/5--5-----4--2---------2/4-----
D|--2--------------------------5-----------
A|-----------------------------------------
E|-----------------------------------------

phir mulaaqat hogi kabhi
E|--------------------------------------
B|-----------3--------------------------
G|---4/5--------4--2---------2/4--2--2--
D|--------------------5--5--------------
A|--------------------------------------
E|--------------------------------------
tabs and chords, guitar tabs, music transcription, music technology, deep learning, music information retrieval, transcribe into tabs & chords, chordify, music renditions, songsterr, reverbnation, tabulature, bollywood chords, ultimate guitar, yousician, guitar lessons, acoustic guitar, electric guitar, guitar tuner, 911 tabs