Guitar Tabs for Main phir bhi tumko chahunga

Tabs for Song : Main phir bhi tumko chahunga

Tum mere ho iss pal mere ho
E|--------------------------------------
B|--------------------------------------
G|--------------------------------------
D|--------3-----3-----4--4--6--4--3-----
A|--4--6-----6-----6--------------------
E|--------------------------------------

Kal shayad ye alam naa rahe
E|--------------------------------------------
B|--------------------------------------------
G|-----6--6--5--5--3--------------------------
D|--3-----------------6--3--4--4--4--6--4-----
A|--------------------------------------------
E|--------------------------------------------

Kuch aisa ho tum tum naa raho
E|-----------------------------------------
B|-----------------------------------------
G|-----------------------------------------
D|--------3--6--4--3--------3--6--4--3-----
A|--4--6--------------4--6-----------------
E|-----------------------------------------

Kuch aisa ho hum hum naa rahe
E|--------------------------------------------
B|--------------------------------------------
G|-----6--6--5--5--3--------------------------
D|--3-----------------6--3--4--4--4--6--4-----
A|--------------------------------------------
E|--------------------------------------------

Yeh raaste alag ho jaaye
E|-----------------------------------------
B|-----------------------------------------
G|-----------------------------------------
D|--3--6--6--4--3--------------------3-----
A|-----------------6--4--4--4--6--6--------
E|-----------------------------------------

Chalte chalte hum kho jaaye
E|--------------------------------------
B|-----------------------4--------------
G|-----2--2---2/3--5--5-----6--6--6-----
D|--3-----------------------------------
A|--------------------------------------
E|--------------------------------------

Main phir bhi tumko chahunga
E|--------------------------------------
B|-----------4--------------------------
G|--3--6--6-----5--3--------3--5--5-----
D|--------------------6--6--------------
A|--------------------------------------
E|--------------------------------------

Main phir bhi tumko chahunga (x2)
E|--------------------------------------------
B|-----------4--------------------------------
G|--3--6--6-----5--3--------3-----------------
D|--------------------6--6-----6--4--3--3-----
A|--------------------------------------------
E|--------------------------------------------

Is chahat mein marr jaunga
E|--------------------------------------
B|-----------4--------------------------
G|--3--6--6-----5--3--------3--5--5-----
D|--------------------6--6--------------
A|--------------------------------------
E|--------------------------------------

Main phir bhi tumko chahunga
E|--------------------------------------------
B|-----------4--------------------------------
G|--3--6--6-----5--3--------3-----------------
D|--------------------6--6-----6--4--3--3-----
A|--------------------------------------------
E|--------------------------------------------

Meri jaan mein har khamoshi hain
E|--------------------------------------
B|--2--6---6/7--6--4---4/2-----4--6-----
G|--------------------------6-----------
D|--------------------------------------
A|--------------------------------------
E|--------------------------------------

Tere pyaar ke nagme gaunga
E|--------------------------------------
B|--4--6---6/7--6--4--------------------
G|--------------------6--5--3---5/6--6--
D|--------------------------------------
A|--------------------------------------
E|--------------------------------------

Aise zaroori ho mujhko tum
E|--------------------------------
B|--------------------------------
G|--------------------------------
D|--4--4--4--4--3-----4--3--3-----
A|-----------------6--------------
E|--------------------------------

Jaise hawa ye saanson ko
E|--------------------------------
B|--------------------------------
G|-----------------5--5--3--3-----
D|--4--4--4--6--6-----------------
A|--------------------------------
E|--------------------------------

Aise talashun main tumko
E|--------------------------------
B|--------------------------------
G|--------------------------------
D|--4--4--4--4--3-----4--3--3-----
A|-----------------6--------------
E|--------------------------------

Jaise ke pair zameeno ko
E|--------------------------------
B|--------------------------------
G|-----------------5--5--3--3-----
D|--4--4--4--6--6-----------------
A|--------------------------------
E|--------------------------------

Hasna yaa rona ho mujhe
E|--------------------------------------
B|--------------------6--4--4--4--4-----
G|--3--5---6/8--6--6--------------------
D|--------------------------------------
A|--------------------------------------
E|--------------------------------------

Paagal sa dhoondhun main tumhe
E|--------------------------------------
B|--------------------6--4--4--4--4-----
G|--3--5---6/8--6--6--------------------
D|--------------------------------------
A|--------------------------------------
E|--------------------------------------

Kal mujhse mohabbat ho naa ho
E|--------------------------------------
B|--6--6--7--6--4-----4--6--7--6--6-----
G|-----------------6--------------------
D|--------------------------------------
A|--------------------------------------
E|--------------------------------------

Kal mujhko ijazat ho naa ho
E|--------------------------------------
B|--6--6--7--6--4-----4--6--7--6--6-----
G|-----------------6--------------------
D|--------------------------------------
A|--------------------------------------
E|--------------------------------------

Tutte dil ke tukde lekar
E|--------4--------------------------------
B|--6--7-----7--6--4--------4--4--6--4-----
G|--------------------6--6-----------------
D|-----------------------------------------
A|-----------------------------------------
E|-----------------------------------------

Tere darr pe hi reh jaaunga
E|-----------------------------------------
B|-----4--6--4-----------------------------
G|--6-----------6--5--3--3--5--6---5/6-----
D|-----------------------------------------
A|-----------------------------------------
E|-----------------------------------------

tabs and chords, guitar tabs, music contests, music covers, songsterr, reverbnation, renditions, tabulature, bollywood chords, ultimate guitar, yousician, guitar lessons, torrins, fender, gibson, acoustic guitar, electric guitar, youtube covers, gootar, guitar tuner, A-Z tabs, 911 tabs