Guitar Tabs for Phir Mohabbat

(/) Slide Up  (\) Slide Down  (h) Hammer On  (p) Pull Off  (b) Bend (r) Release (v) Vibrato (x) Muted

Tabs for Song : Phir Mohabbat tabs

Intro
E|--------------------------------------------------------
B|--------4--3-----------------------4--3-----------------
G|-----0-----------3-----1--------0--------------3-----1--
D|--------------------------1-----------------------------
A|--3-----------------------------------------------------
E|--------------------------------------------------------

Jab jab tera pass ek sukun mila
E|-----------------------------------------------------------------------
B|-----------------------------------3--3-----3-----4--4---4/6---6\3-----
G|-----------5--5-----5--3--3-----3-----------------------------------5--
D|------3/5--------------------------------------------------------------
A|-----------------------------------------------------------------------
E|-----------------------------------------------------------------------

Jise me tha dhundta aaya woh vajud mila
E|-----------------------------------------------------------------------
B|-----------------------------------3--3-----3-----4--4---4/6---6\3-----
G|-----------5--5-----5--3--3-----3-----------------------------------5--
D|------3/5--------------------------------------------------------------
A|-----------------------------------------------------------------------
E|-----------------------------------------------------------------------

Jab aaye mausham gam k
E|---------------------------------------------------------------------------3h-4p3--------------
B|-----------------------------------3--3-----3-----4--4---4/6---6\3-----------------4--3--------
G|-----------5--5-----5--3--3-----3-----------------------------------5--------------------3-----
D|------3/5-----------------------------------------------------------------------------------5--
A|-----------------------------------------------------------------------------------------------
E|-----------------------------------------------------------------------------------------------

Jab shehme tanha pan se
E|-----------------------------------------------------------------------
B|-----------------------------------3--3-----3-----4--4---4/6---6\3-----
G|-----------5--5-----5--3--3-----3-----------------------------------5--
D|------3/5--------------------------------------------------------------
A|-----------------------------------------------------------------------
E|-----------------------------------------------------------------------

Dil sambhal ja zara
E|--------------------------------------------------
B|-----------------------------------6--6--3--------
G|------3\5-----5--5--5--5-----5--5-----------5--3--
D|--------------------------------------------------
A|--------------------------------------------------
E|--------------------------------------------------

phir mohabbat karne chala hai tu
E|--------------------------------------------------------------
B|--------4--4--3--3--------------------------------------------
G|--------------------5--5--3--3--5------3h-5p3-----------------
D|-----5-----------------------------------------5--5--3--3--5--
A|--------------------------------------------------------------
E|--------------------------------------------------------------

Aisa kyun kab hua
E|-----------------------------------------------------------------4--4--3------3h-4p3--------------
B|-----------3---4/6-----6--4---4\3--------------3---4/6--------3-----------------------4--3--------
G|------3/5------------------------------3/5--------------------------------------------------3--5--
D|--------------------------------------------------------------------------------------------------
A|--------------------------------------------------------------------------------------------------
E|--------------------------------------------------------------------------------------------------

Jis raahon par hai ghar tera aksar wahan se tha me hun gujra
E|--------------------------------------------------------------------------------------
B|-----3--3--------------3--3-----------------------------------------------------------
G|-----------5--5--------------5--5------3/5--5--3--------------------3-----------------
D|--------------------------------------------------6-----6-----6-----------6--5-----5--
A|--------------------------------------------------------------------------------------
E|--------------------------------------------------------------------------------------

Sayad yehi dil ne kaha
E|-----------------------------------------------------------------3-----------
B|-----3--3--------------3--3--------------------------------------------6--6--
G|-----------5--5--------------5--5------3/5--5--3-----------------------------
D|--------------------------------------------------6-----6-----6--------------
A|-----------------------------------------------------------------------------
E|-----------------------------------------------------------------------------






Now supports capo and sound effects for vibrato/pull-off/hammer/bends/mutes etc !!! Checkout help section
tabs and chords, guitar tabs, music contests, music covers, songsterr, reverbnation, renditions, tabulature, bollywood chords, ultimate guitar, yousician, guitar lessons, torrins, fender, gibson, acoustic guitar, electric guitar, youtube covers, gootar, guitar tuner, A-Z tabs, 911 tabs