Guitar Tabs for Perfect - Ed Sheeran Tabs

(/) Slide Up  (\) Slide Down  (h) Hammer On  (p) Pull Off  (b) Bend (r) Release (v) Vibrato (x) Muted

Tabs for Song : Perfect

steve 1:
E|--------------------------------------------------------------------------------
B|--------0--------------3--------0--------0--------3--------3--------------0-----
G|---2h0--------0-----0--0--------0--2--0--------0--0--------0---------0h2--------
D|-----------------0-----------0--0-----------2-----------2--------2--------------
A|--------------------------------------------------------------------------------
E|--------------3-----------3-----3--------0-----------0--------0-----------------

Stave 2:
E|-----------------------------------------------------2-----------
B|--0-----------------3--------------0--------3-----------0--------
G|------2p0--0--------0---------0h2-----2--2-----2-----------2--0--
D|-----------------2--------2-----------0-----------0--------------
A|--3-----------3--------3-----------------------------------------
E|-----------------------------------------------------------------

Stave 3:
E|--------------------------------------------------------------------------
B|--0--------3--------3--------------------------3--------3--------------0--
G|--------0--0--------0---------3/7--4---2p0-----0--------0---------0h2-----
D|-----0-----------0--------0--------------------------2--------2-----------
A|--------------------------------------------------------------------------
E|--3-----------3--------3--------------0-----0-----0--------0--------------

Stave 4:
E|--------------------------------------------------------------
B|---0h1--1---1p0--------------------0--------3--3---3/5--0-----
G|--0--------------2---2p0------0h2-----2--------------------2--
D|-----------2--------0-----0-----------0-----------------------
A|--3--------------------------------------x--------------------
E|-----------------------------------------x--------------------

Stave 5:
E|--------------------------------------------------------------------------
B|--0--------0--------0--------0--------0--------0--------0--------0--------
G|--0-----0--0--------0--------0--2--0--0-----0--0--------0--------0--2--0--
D|-----0-----------0--------0--------------0-----------2--------0-----------
A|-----------x-----------------x-----------------x-----------------x--------
E|--3--------x--3--------3-----x--------0--------x--0--------0-----x--------

Stave 6:
E|--------------------------------------------------------------------------------
B|---0h1---------1p0--------------------------0-----------0--1--0-----------------
G|--0-----------0-----------------0--------------------0--0--------2---2/4--2--0--
D|--0--------2--------------2-----------0-----------0--------------0--------------
A|--------3------x-------3----------------x-----------------x---------------------
E|--3------------x------------------------x------3----------x---------------------

Stave 7:
E|--------------------------------------------------------------------------
B|--0--------0--------0--------0--------0--------0--------0--------0--------
G|--0-----0--0--------0--------0--2--0--0-----0--0--------0--------0--2--0--
D|-----0-----------0--------0--------------0-----------2--------0-----------
A|-----------x-----------------x-----------------x-----------------x--------
E|--3--------x--3--------3-----x--------0--------x--0--------0-----x--------

Stave 8:
E|--------------------------------------------------------------------
B|---0h1------------------1p0-----------------------------------------
G|--0--------------------0--------------------------0-----------------
D|-----------------2-----------------------2-----------------0--------
A|--3--------3------------x----------3--------------------------------
E|------------------------x-------------------------------------------

Stave 9:
E|-----------------------------------------------------------------
B|---------------0h3-----------------------------------8--7--5--7--
G|---0h2---0h2--------0---2h-4p-2p0-----0-----------0--------0-----
D|-----------------------------------------------------------------
A|--------------------------------------------x--------3-----x-----
E|--------------------------------------0-----x--0-----------x-----

Stave 10:
E|-----------------------------------------------------------------------------------------
B|--0--------0--------3--1--0-----------------8--5--7--0--------0--------3--3--3---3/5-----
G|--------0--0-----0--------0--2--0--------0-----0-----------0--0-----0-----------2--------
D|-----0--------------0-----------------------3-----------0--------------0-----------------
A|-----------x--------------x--------x-----------x--------------x------------------x-------
E|--3--------x--3-----------x-----0--x--0--------x-----3--------x--3---------------x-------

Stave 11:
E|--------------------------------------------------------------------------------------------------
B|--0-----------------8--7-----5-----7--0--------------0--3--1--0--------0------------0h1---1\0-----
G|------2p0--0-----0-----------0--------------0---0h2-----------0--2---------2p0--0--0--------------
D|-----------2--------3--------------------0--------------0-----------------------------------------
A|-----------x-----------------x------------------x---------------x---------------------3-----------
E|--0--------x--0--------------x--------3---------x---------------x---------0-----------------------

Stave 12:
E|--------------------------------7--------5--------3--------2-----------0--------2-----------------
B|--------0--------------------0--------0--------0--------0-----------1-----1-----3-----0--3--------
G|---0h2------2p0--0--2--0-----------------------------------------0-----------0--2-----------0-----
D|--------------------0-----5--------4--------2--------0--------------------------0-----------------
A|--------------------------------------------------------------3-----------------------------------
E|--------3-----------------------------------------------------------------------------------------

			

tabs and chords, guitar tabs, music contests, music covers, songsterr, reverbnation, renditions, tabulature, bollywood chords, ultimate guitar, yousician, guitar lessons, torrins, fender, gibson, acoustic guitar, electric guitar, youtube covers, gootar, guitar tuner, A-Z tabs, 911 tabs