Guitar Tabs for Perfect - Ed Sheeran Tabs

(/) Slide Up  (\) Slide Down  (h) Hammer On  (p) Pull Off  (b) Bend (r) Release (v) Vibrato (x) Muted

Tabs for Song : 
BPM : 200
Capo : Fret 1
    I Found a love                          for         me
E|--------------------------------------------------------------------------------------
B|--------------------------------------------------------------------------------------
G|--------0--0------------------------------0h2---------2\4-----------------------------
D|--0--2--------------------------------------------------------------------------------
A|--------------------------------------------------------------------------------------
E|--------------------------------------------------------------------------------------
    Darling just dive right in              follow my lead                            I found a girl
E|--------------------------------------------------------------------------------------------------------------
B|--------------------------------------------------------------------------------------------------------------
G|--0--2--4--4-----0--0-----------------------0--2---0h2-----------------------------4--2--0---2\4--------------
D|-----------------------------------------2--------------------------------------------------------------------
A|--------------------------------------------------------------------------------------------------------------
E|--------------------------------------------------------------------------------------------------------------
              Beautiful and sweet                I never knew you were the someone waiting for me
E|--------------------------------------------------------------------------------------------------------------------------
B|-----------3-----0-----------------------------------0---0h1-----1---1p0--------------------------------------------------
G|--------------------2--0-----0-----------------0--2--------------------------2--2--0-----0--2--4---0h2--------------------
D|--------------------------------------------------------------------------------------------------------------------------
A|--------------------------------------------------------------------------------------------------------------------------
E|--------------------------------------------------------------------------------------------------------------------------


Cause we were just kids when we fell in love           Not knowing what it was            I will not give you

E|--------------------------------------------------------------------------------------------------------------
B|--3--3--3--5--0-----------------------------------0--------------------------------------------0--1-----1--0--
G|-----------------2---2\4-----4---------2\4-----------2--0---2\4-----4---------2\4--------0--2-----------------
D|--------------------------------------------------------------------------------------------------------------
A|--------------------------------------------------------------------------------------------------------------
E|--------------------------------------------------------------------------------------------------------------

up this ti - ime                                       Darling just kiss me slow
E|-----------------------------------------------------------------------------------------
B|--------------------------0--------0--1--0-----------------------------------------------
G|-----0--2--0--------------------------------2--------4--2--0---2\4-----4---------2\4-----
D|-----------------0-----------------------------------------------------------------------
A|-----------------------------------------------------------------------------------------
E|-----------------------------------------------------------------------------------------

       your heart is all I own                And in your eyes you're holding mine
E|--------------------------------------------------------------------------------------------------------------
B|--------------------------------------------------0--1-----1--0-----------------------------------------------
G|-----4--2--0---2\4-----4---------2\4--------0--2--------------------0--2--0-----0--------2--------------------
D|--------------------------------------------------------------------------------------------------------------
A|--------------------------------------------------------------------------------------------------------------
E|--------------------------------------------------------------------------------------------------------------

 Baby, I'm                              dancing in the dark             with you between my arms

E|-----------------------------------------------------------------------------------------------------
B|--3---------3\5-----------0-----------8-----7--5-----7--0--------------3-----1--0--------------------
G|--------------------------------------------------------------------0-----------------2--0-----------
D|-----------------------------------------------------------------------------------------------------
A|-----------------------------------------------------------------------------------------------------
E|-----------------------------------------------------------------------------------------------------

          Barefoot on the grass               listening to our favorite song, When I saw you in that dress
E|-----------------------------------------------------------------------------------------------------------
B|--------8-----7--5-----7--0-----------------3--3--3--3--5-----0--------------8--8-----7--5-----7--0--------
G|-----------------------------------------------------------------2--0-----0--------------------------------
D|-----------------------------------------------------------------------------------------------------------
A|-----------------------------------------------------------------------------------------------------------
E|-----------------------------------------------------------------------------------------------------------
  looking so beautiful       I don't deserve this               darling you look perfect
E|-----------------------------------------------------------------------------------------------------
B|--------0--3-----1--0-----1--0-----------------1--------0--------------------------------------------
G|--0--2--------------------------------2------------------------0h2--4--------2---------0h2--------0--
D|-----------------------------------------------------------------------------------------------------
A|-----------------------------------------------------------------------------------------------------
E|-----------------------------------------------------------------------------------------------------
          Well I found a woman             stronger than anyone I know
E|--------------------------------------------------------------------------------
B|--------0--3-----0-----0--------------------------------------------------------
G|--------------0--------------------------0--2--4--4-----2--0--0--0--0-----------
D|--------------------------------------------------------------------------------
A|--------------------------------------------------------------------------------
E|--------------------------------------------------------------------------------
    She shares my dreams, I hope that someday I'll share her home
E|--------------------------------------------------------------------------------------
B|--------0--1-----1--0-----------------------0-----------------------------------------
G|--0--2--------------------0--2--0-----0--2------0h2---------2\4---------4\7-----------
D|--------------------------------------------------------------------------------------
A|--------------------------------------------------------------------------------------
E|--------------------------------------------------------------------------------------
  I found a love
E|--------------------------
B|--0--3--0---3p0--------0--
G|--------------------------
D|--------------------------
A|--------------------------
E|--------------------------

Use manual mode to free up cursor. Paste any tab in acousterr tab maker and we'll play it !!!
tabs and chords, guitar tabs, music transcription, music technology, deep learning, music information retrieval, transcribe into tabs & chords, chordify, music renditions, songsterr, reverbnation, tabulature, bollywood chords, ultimate guitar, yousician, guitar lessons, acoustic guitar, electric guitar, guitar tuner, 911 tabs