Guitar Tabs for Perfect - Ed Sheeran - Alternate Tuning

(/) Slide Up  (\) Slide Down  (h) Hammer On  (p) Pull Off  (b) Bend (r) Release (v) Vibrato (x) Muted

Tabs for Song : 

   I  found  a love         fooooor  me      darlin just dive  right in   and follow my lead
F|-----------------------------------------------------------------------------------------
C|--------------------------0--------0--------0------0h1--------------------------0---------
G|--------------0---------------2p0--------------2--------------2-----0-----0---2----2-----------
D|--0--0-----2-----------------------------------------------------------------------0------
A|-----------------------------------------------------3------------------------------------
F|--------------3-----------2--------0--------------------------------------------------------
   
       I found a   girl beautiful and swee t I   never knew    you were the someone
F|-----------------------------------------------------------------------------------------
C|-----0-----------0----0-----------------------------------1---------1p0-----0--------------
G|--------2--0----------------2p0--------0--------0--0--2---------------------------2p0--------
D|------------------------------0h2--------------------------------------------------------
A|-----------------------------------------------------------------------------------------
F|-----------------------------------------------------------------------------------------
 
 waiting for me.  Cause we were just kids when we fell in love not knowing what   it was
F|--------------------------------------------------------------------------------------
C|--------0--------0-----3--3-----3--3--------------0--0--0-----0-----------0-----0--0--
G|--0--2-----2-----------------------------0-----2-----------------2--0-----------------
D|--------------------------------------------------------------------------------------
A|--------------------------------------------------------------------------------------
F|--------------------------------------------------------------------------------------
    
    I  wil not give you up this tiiiiiiime
F|--------------------------------------------
C|--0-----------1------------------3p0--------
G|------2h0--------2--0--------2---------0h2--
D|------------------------0h2-----------------
A|--------------------------------------------
F|--------------------------------------------
   But darling, just kiss   me slow, your heart is all I own
F|-----------------------------------------------------------
C|--0-----------0-----0-----0--0-----0--------------0--0--0--
G|-----2--0---------------------------------2p0--------------
D|-----------------------------------------------------------
A|-----------------------------------------------------------
F|-----------------------------------------------------------
   And in your eyes you're holding mine
F|-----------------------------------
C|--0-----------1-----0--------------
G|------2p0-----------------0-----2--
D|-----------------------------0-----
A|-----------------------------------
F|-----------------------------------

   Baaaby,      I'm   dancing in the dark with   you   between my arms
F|--------------------3-----3--------------------------0--------------
C|--3--0------------------------0h1--3-----0-----3--------0-----------
G|---------2p0--0------------------------------------------------2p0--
D|--------------------------------------------------------------------
A|--------------------------------------------------------------------
F|--------------------------------------------------------------------
    Barefoot on the   grass, listening to our favorite song
F|--3-----3-----------------
C|------------0h1-----3-----
G|--------------------------
D|--------------------------
A|--------------------------
F|--------------------------


When you said you looked a mess, I whispered underneath my breath
F|--
C|--
G|--
D|--
A|--
F|--
   But you heard   it, darling,   you look perfect 
F|--------------------------------------------------
C|--0------0h1-----0--------------0-----------------
G|-----0---------------0h2--------------0---0h2--0--
D|--------------------------------------------------
A|--------------------------------------------------
F|--------------------------------------------------
 tonight                                                                    Strum on G \/
                                                                            Strike a Pose!
F|-----------3--------------------0-----------------0------------------2h-3h2-----------3
C|--------3-----------3--------0-----0-----------1-----1-----------3-----------3--------3
G|-----0-----------2--------0-----------0-----0-----------0-----2-----------------2-----0
D|--2--------------------------------------------------------0-----------------------0--0
A|-----------------------------------------3--------------------------------------------2
F|-----3--------2--------0--------------------------------------------------------------3

F|--
C|--
G|--
D|--
A|--
F|---

Now supports capo and sound effects for vibrato/pull-off/hammer/bends/mutes etc !!! Checkout help section
tabs and chords, guitar tabs, music contests, music covers, songsterr, reverbnation, renditions, tabulature, bollywood chords, ultimate guitar, yousician, guitar lessons, torrins, fender, gibson, acoustic guitar, electric guitar, youtube covers, gootar, guitar tuner, A-Z tabs, 911 tabs