Guitar Tabs for Payphone

PAYPHONE
BPM : 230

E|-----------5--------3-----3--2--------------------------------------------------------------------
B|--0--1--3-----------------------3--1--------1-----1--0-----1-----0--------------------------------
G|--------------------------------------------------------0--------------2-----0--4--2--------------
D|--------------------------------------------------------------------------------------0-----------
A|--------------3-----------------------------------------------------------------------------------
E|--------------------------------------3-----------------------0-----------------------------------

E|-----------5--------3-----3--2-----------------------------------------------------------------------
B|--0--1--3-----------------------3--1--------1-----1--0-----1-----0-----------------------------------
G|--------------------------------------------------------0--------------2-----0--4--2-----------------
D|--------------------------------------------------------------------------------------0--------------
A|--------------3--------------------------------------------------------------------------------------
E|--------------------------------------3-----------------------0--------------------------------------

E|--------------------------------------------------------------------------------------------------
B|--------------------0--3-----3-----0-----------------------------0--3-----3-----0--------0--------
G|--0-----0--------0-----------------------2--2-----2-----------0-----------------------2-----------
D|--------------------------------------------------------------------------------------------------
A|-----------3--------------------------------------------------------------------------------------
E|--------------------------------------------------------3-----------------------------------------

E|-----------------------------------------------------------------------0--------------------------
B|-----------0--3-----3-----0-----------------------------0--3-----3-----------0--0-----------------
G|--------0-----------------------2--2-----2-----------0--------------------------------2--0--------
D|-----------------------------------------------0--------------------------------------------------
A|--------------------------------------------------------------------------------------------3-----
E|--0-----------------------------------------------------------------------------------------------

E|-----------------------------------------------------------------------------------------------------
B|-----0--3-----3-----0-----------------------------0--3-----3-----0--------0-----------------0--3-----
G|--0-----------------------2--2-----2-----------0-----------------------2-----------------0-----------
D|-----------------------------------------------------------------------------------------------------
A|-----------------------------------------------------------------------------------------------------
E|-----------------------------------------3-----------------------------------------0-----------------

E|-----------------------------------------------------------
B|--3-----0--------------------1-----0--------1-----0--------
G|--------------2--2-----2-----------------0--------------2--
D|-----------------------------0-----------------------------
A|-----------------------------------------------------------
E|-----------------------------------------------------------

E|--------------------------------------------------------------------------------------------------------------
B|--0-----0-----0-----0--------0-----0-----0-----0--------0-----0-----0-----0-----1--------------------------3--
G|--------------------------2--------------------------2-----------------------------2-----0-----0-----0--------
D|-----------------------------------------------------------------------------------0--------0-----------------
A|--3--------3--------------------------------------------------------------------------------------------------
E|-----------------------------3--------3-----------------0--------0--------------------------------------------

E|----------------------------------------------------------------------------------------- UDAH DE ULANG LG WKW
B|--0-----0-----0-----0--------0-----0-----0-----0--------0-----0-----0-----0-----1--------
G|--------------------------2--------------------------2-----------------------------2-----
D|-----------------------------------------------------------------------------------0-----
A|--3--------3-----------------------------------------------------------------------------
E|-----------------------------3--------3-----------------0--------0-----------------------

tabs and chords, guitar tabs, music transcription, music technology, deep learning, music information retrieval, transcribe into tabs & chords, chordify, music renditions, songsterr, reverbnation, tabulature, bollywood chords, ultimate guitar, yousician, guitar lessons, acoustic guitar, electric guitar, guitar tuner, 911 tabs