Guitar Tabs for Passarinho - Rainer Shurenbrand

(/) Slide Up  (\) Slide Down  (h) Hammer On  (p) Pull Off  (b) Bend (r) Release (v) Vibrato (x) Muted

Tabs & Chords
BPM : 144.0
Check Track 2 for Chord Positions 

          Am                                     Em                   E                          
E|-----------------0--------------------------0-----------------------0-----0-----7--------------
B|-----------0-----------0--------------------------0-----0--------------------9--------------0--
G|--------------------------------------10-10----7-----------10-10-10----7-----------7-----------
D|--7-----7-----10----10----7--7-----7--------------------------------------------------10-------
A|-----------------------------------------------------------------------------------------------
E|-----------------------------------------------------------------------------------------------

    Am                                              Em                E                       
E|--------------------------------------------0-----------12----------------------------------
B|--0--------0--0--------------0-----10-------------0-----------------------------------------
G|-----------------------------------------10-------------------------------------------------
D|-----7-----------10-------------------------------------------------0-----------0-----------
A|--------------------7-----------------------------------------9--------7--------------------
E|-----------------------7-----------------------------------7-----------------11-------8--7--

       Am                Dm       Em             E                 Am                         
E|--------------------------0-----------------------------7-----------------------0-----------
B|--------------10----------------8-----------------------------9--10----0--0-----------0-----
G|--------------------10-10-------------------------------------------------------------------
D|-----------------------------------------------0-----------------------------10----------7--
A|-----------0-----------------------------8--------7-----------------0-----------------------
E|-----8--------------------------------7-----------------------------------------------------

                   Em                   E                             Am                         
E|--------------0-----------------------0-----0--0-----------------------------------------------
B|--10----------------0-----0-----------------------9-----9-----0-----------0-----------0-----10-
G|--------10-10----7-----------10-10-------------------------------------------------------------
D|--------------------------------------------------------------------7--------------------------
A|-----------------------------------------------------------------------------------------------
E|--------------------------------------------------------------------------------8--7-----------

Guitar Tabs for Passarinho - Rainer Shurenbrand






          Am                                     Em                   E                          
E|--------0--------------------------------------0--------------------0--------------------------
B|--------1--------------------------------------0--------------------0--------------------------
G|--------2--------------------------------------0--------------------1--------------------------
D|--------2--------------------------------------2--------------------2--------------------------
A|--------0--------------------------------------2--------------------2--------------------------
E|-----------------------------------------------0--------------------0--------------------------

    Am                                              Em                E                       
E|--0-----------------------------------------------0-----------------0-----------------------
B|--1-----------------------------------------------0-----------------0-----------------------
G|--2-----------------------------------------------0-----------------1-----------------------
D|--2-----------------------------------------------2-----------------2-----------------------
A|--0-----------------------------------------------2-----------------2-----------------------
E|--------------------------------------------------0-----------------0-----------------------

       Am                Dm       Em             E                 Am                         
E|-----0-----------------1--------0--------------0-----------------0--------------------------
B|-----1-----------------3--------0--------------0-----------------1--------------------------
G|-----2-----------------2--------0--------------1-----------------2--------------------------
D|-----2-----------------0--------2--------------2-----------------2--------------------------
A|-----0--------------------------2--------------2-----------------0--------------------------
E|--------------------------------0--------------0--------------------------------------------

                   Em                   E                             Am                         
E|-----------------0--------------------0-----------------------------0--------------------------
B|-----------------0--------------------0-----------------------------1--------------------------
G|-----------------0--------------------1-----------------------------2--------------------------
D|-----------------2--------------------2-----------------------------2--------------------------
A|-----------------2--------------------2-----------------------------0--------------------------
E|-----------------0--------------------0--------------------------------------------------------

tabs and chords, guitar tabs, music transcription, music technology, deep learning, music information retrieval, transcribe into tabs & chords, chordify, music renditions, songsterr, reverbnation, tabulature, bollywood chords, ultimate guitar, yousician, guitar lessons, acoustic guitar, electric guitar, guitar tuner, 911 tabs