Guitar Tabs for Papa Kehte Hai Bada Naam Karega

(/) Slide Up  (\) Slide Down  (h) Hammer On  (p) Pull Off  (b) Bend (r) Release (v) Vibrato (x) Muted

Tabs for Song : 
BPM : 200

Papa kehte hai bada naam karega (guitar tabs )            

e|--0--0-----------------------------1--0--------
C|--------3--1--3-----------1--1-----------3-----
G|--------------------0--2-----------------------
D|-----------------------------------------------
A|-----------------------------------------------
F|-----------------------------------------------
Papa kehte hain bada naam karega

e|--0--0-----------------------------1--0--------
C|--------3--1--3-----------1--1-----------3-----
G|--------------------0--2-----------------------
D|-----------------------------------------------
A|-----------------------------------------------
F|-----------------------------------------------
Beta hamara aisa kaam karega

F|--------------------------------------
C|-----------0--1--1--1--1--0-----------
G|--0--2--------------------------2--2--
D|--------------------------------------
A|--------------------------------------
F|--------------------------------------
Magar yeh to koi na jaane

F|-----------------------------
C|-----------------------------
G|--2--2--0-----------------0--
D|--------------3--3--2--3-----
A|-----------------------------
F|-----------------------------
Ki meri manzil hai kahan

F|-----------------------------------------
C|-----------------------------------------
G|--0--0--0--0--2--0-----0--0--0--0--2--0--
D|-----------------------------------------
A|-----------------------------------------
F|-----------------------------------------
Baithe hain milke sab yaar apne

e|--------------------------------------------0--
C|--1--1--0-----------0--------0--1--3-----------
G|--------------2--2--------2--------------------
D|-----------------------------------------------
A|-----------------------------------------------
F|-----------------------------------------------
Sabke dilon me Armaan ye hai

F|-----------------------------------------
C|-----------------------------------------
G|--0--0--0--0--2--0-----0--0--0--0--2--0--
D|-----------------------------------------
A|-----------------------------------------
F|-----------------------------------------
Wo zindagi mein kal kya banega

e|--------------------------------------------0--
C|--1--1--0-----------0--------0--1--3-----------
G|--------------2--2--------2--------------------
D|-----------------------------------------------
A|-----------------------------------------------
F|-----------------------------------------------
Har ek nazar ka sapna yeh hai

e|--0--0-----------------------------1--0--------
C|--------3--1--3-----------1--1-----------3-----
G|--------------------0--2-----------------------
D|-----------------------------------------------
A|-----------------------------------------------
F|-----------------------------------------------
Koi engineer ka kaam karega

e|--0--0-----------------------------1--0--------
C|--------3--1--3-----------1--1-----------3-----
G|--------------------0--2-----------------------
D|-----------------------------------------------
A|-----------------------------------------------
F|-----------------------------------------------
Business mein koi apna naam karega

F|--------------------------------------
C|-----------0--1--1--1--1--0-----------
G|--0--2--------------------------2--2--
D|--------------------------------------
A|--------------------------------------
F|--------------------------------------
Magar yeh to koi na jaane

F|-----------------------------
C|-----------------------------
G|--2--2--0-----------------0--
D|--------------3--3--2--3-----
A|-----------------------------
F|-----------------------------
Ki meri manzil hai kahan

e|--0--0-----------------------------1--0--------
C|--------3--1--3-----------1--1-----------3-----
G|--------------------0--2-----------------------
D|-----------------------------------------------
A|-----------------------------------------------
F|-----------------------------------------------
Papa kehte hain bada naam karega

e|--0--0-----------------------------1--0--------
C|--------3--1--3-----------1--1-----------3-----
G|--------------------0--2-----------------------
D|-----------------------------------------------
A|-----------------------------------------------
F|-----------------------------------------------
Beta hamara aisa kaam karega

F|--------------------------------------
C|-----------0--1--1--1--1--0-----------
G|--0--2--------------------------2--2--
D|--------------------------------------
A|--------------------------------------
F|--------------------------------------
Magar yeh to koi na jaane

F|-----------------------------
C|-----------------------------
G|--2--2--0-----------------0--
D|--------------3--3--2--3-----
A|-----------------------------
F|-----------------------------
Ki meri manzil hai kahan

e|--0--0-----------------------------1--0--------
C|--------3--1--3-----------1--1-----------3-----
G|--------------------0--2-----------------------
D|-----------------------------------------------
A|-----------------------------------------------
F|-----------------------------------------------
Papa kehte hain bada naam karega

-------------------- C-major chord -------------------

F|--
C|--
G|--
D|--
A|--
F|--

Song lyrics here 
F|--
C|--
G|--
D|--
A|--
F|--

Use manual mode to free up cursor. Paste any tab in acousterr tab maker and we'll play it !!!
tabs and chords, guitar tabs, music transcription, music technology, deep learning, music information retrieval, transcribe into tabs & chords, chordify, music renditions, songsterr, reverbnation, tabulature, bollywood chords, ultimate guitar, yousician, guitar lessons, acoustic guitar, electric guitar, guitar tuner, 911 tabs