Guitar Tabs for Papa Kehte Hai

baithe hai milke...
E|---------------------------------------------------5/8--8--7---5h7--5-----7-----5-----7---7/8-----
B|--8--8--8---8/10----8-----8--8--8---8/10----8-----------------------------------------------------
G|--------------------------------------------------------------------------------------------------
D|--------------------------------------------------------------------------------------------------
A|--------------------------------------------------------------------------------------------------
E|--------------------------------------------------------------------------------------------------

woh zindegi me...
E|---------------------------------------------------5/8--8--7---5h7--5-----7-----5-----7---7/8--10----12----
B|--8--8--8---8/10----8-----8--8--8---8/10----8--------------------------------------------------------------
G|-----------------------------------------------------------------------------------------------------------
D|-----------------------------------------------------------------------------------------------------------
A|-----------------------------------------------------------------------------------------------------------
E|-----------------------------------------------------------------------------------------------------------

koi engineer ka...
E|--12-12-10-8--10-------8-----10/13-12-10----
B|-----------------8--10----------------------
G|--------------------------------------------
D|--------------------------------------------
A|--------------------------------------------
E|--------------------------------------------

business me koi apna...
E|--12-12-10-8--10-------8-----10/13-12-10----
B|-----------------8--10----------------------
G|--------------------------------------------
D|--------------------------------------------
A|--------------------------------------------
E|--------------------------------------------

magar ye toh..
E|--------7---7h8--8-----8--8--7---5/7--5-----5--5-----------------------------------------------
B|--8--10-------------------------------------------8---6/8--6-----5-----6---6/8-----10----12----
G|-----------------------------------------------------------------------------------------------
D|-----------------------------------------------------------------------------------------------
A|-----------------------------------------------------------------------------------------------
E|-----------------------------------------------------------------------------------------------

papa kehte hai...
E|--12-12-10-8--10-------8-----10/13-12-10----10h12p10-------
B|-----------------8--10-------------------------------13----
G|-----------------------------------------------------------
D|-----------------------------------------------------------
A|-----------------------------------------------------------
E|-----------------------------------------------------------

Intro
E|-----------5-----------5-----------------------------------------
B|--------5-----8-----8-----------------------------5--5--6--6--5--
G|--5------------------------7/-8\7--7--5--7-----5-----------------
D|--------------------------------------------7--------------------
A|-----------------------------------------------------------------
E|-----------------------------------------------------------------


E|-----------5-----------5--------------------------------------------
B|--------5-----8-----8-----------------------------5--5--6--6--5-----
G|--5------------------------7/-8\7--7--5--7-----5--------------------
D|--------------------------------------------7-----------------------
A|--------------------------------------------------------------------
E|--------------------------------------------------------------------

 
E|--5--------5-----5--5-----5--------5-----5--5-----7--8--7--5--
B|--------8--------------8--------8--------------8--------------
G|--------------------------------------------------------------
D|--------------------------------------------------------------
A|--------------------------------------------------------------
E|--------------------------------------------------------------


E|--------------------------------------------------------------------------
B|-----8-----6-----5--6-----5--6-----6--6--5--6-----5--6-----6--6--5---5/8--
G|--------------------------------------------------------------------------
D|--------------------------------------------------------------------------
A|--------------------------------------------------------------------------
E|--------------------------------------------------------------------------


tabs and chords, guitar tabs, music transcription, music technology, deep learning, music information retrieval, transcribe into tabs & chords, chordify, music renditions, songsterr, reverbnation, tabulature, bollywood chords, ultimate guitar, yousician, guitar lessons, acoustic guitar, electric guitar, guitar tuner, 911 tabs