Guitar Tabs for Papa Kehte Hai

(/) Slide Up  (\) Slide Down  (h) Hammer On  (p) Pull Off  (b) Bend (r) Release (v) Vibrato (x) Muted

Tabs for Song : 
BPM : 200
e|--0--0-----------------------------1--0--------
B|--------3--1--3-----------1--1-----------3-----
G|--------------------0--2-----------------------
D|-----------------------------------------------
A|-----------------------------------------------
E|-----------------------------------------------
Papa kehte hain bada naam karega

e|--0--0-----------------------------1--0--------
B|--------3--1--3-----------1--1-----------3-----
G|--------------------0--2-----------------------
D|-----------------------------------------------
A|-----------------------------------------------
E|-----------------------------------------------
Beta hamara aisa kaam karega

E|--------------------------------------------------------------------
B|-----------0--1--1--1--1--0-----------2--2--0-----------------0-----
G|--0--2--------------------------2--2--------------3--3--2--3--------
D|--------------------------------------------------------------------
A|--------------------------------------------------------------------
E|--------------------------------------------------------------------
Magar yeh to koi na jaane Ki meri manzil hai kahan

e|--0--0-----------------------------1--0--------
B|--------3--1--3-----------1--1-----------3-----
G|--------------------0--2-----------------------
D|-----------------------------------------------
A|-----------------------------------------------
E|-----------------------------------------------
Papa kehte hain bada naam karega

E|-----------------------------------------
B|-----------------------------------------
G|--0--0--0--0--2--0-----0--0--0--0--2--0--
D|-----------------------------------------
A|-----------------------------------------
E|-----------------------------------------
Baithe hain milke sab yaar apne

E|--------------------------------------
B|--1--1--0-----------0--------0--1-----
G|--------------2--2--------2-----------
D|--------------------------------------
A|--------------------------------------
E|--------------------------------------
Sabke dilon mein armaan yeh hai

E|-----------------------------------------
B|-----------------------------------------
G|--0--0--0--0--2--0-----0--0--0--0--2--0--
D|-----------------------------------------
A|-----------------------------------------
E|-----------------------------------------
Wo zindagi mein kal kya banega


e|--------------------------------------------0--
B|--1--1--0-----------0--------0--1--3-----------
G|--------------2--2--------2--------------------
D|-----------------------------------------------
A|-----------------------------------------------
E|-----------------------------------------------
Har ek nazar ka sapna yeh hai

e|--0--0-----------------------------1--0--------
B|--------3--1--3-----------1--1-----------3-----
G|--------------------0--2-----------------------
D|-----------------------------------------------
A|-----------------------------------------------
E|-----------------------------------------------
Koi engineer ka kaam karega

e|--0--0-----------------------------1--0--------
B|--------3--1--3-----------1--1-----------3-----
G|--------------------0--2-----------------------
D|-----------------------------------------------
A|-----------------------------------------------
E|-----------------------------------------------
Business mein koi apna naam karega

E|--------------------------------------
B|-----------0--1--1--1--1--0-----------
G|--0--2--------------------------2--2--
D|--------------------------------------
A|--------------------------------------
E|--------------------------------------
Magar yeh to koi na jaane

E|-----------------------------
B|-----------------------------
G|--2--2--0-----------------0--
D|--------------3--3--2--3-----
A|-----------------------------
E|-----------------------------
Ki meri manzil hai kahan

-x-x--x-x--x-x--x-x--x-x-

e|--0--0-----------------------------1--0--------
B|--------3--1--3-----------1--1-----------3-----
G|--------------------0--2-----------------------
D|-----------------------------------------------
A|-----------------------------------------------
E|-----------------------------------------------
Papa kehte hain bada naam karega

e|--0--0-----------------------------1--0--------
B|--------3--1--3-----------1--1-----------3-----
G|--------------------0--2-----------------------
D|-----------------------------------------------
A|-----------------------------------------------
E|-----------------------------------------------
Beta hamara aisa kaam karega

E|--------------------------------------
B|-----------0--1--1--1--1--0-----------
G|--0--2--------------------------2--2--
D|--------------------------------------
A|--------------------------------------
E|--------------------------------------
Magar yeh to koi na jaane

E|-----------------------------
B|-----------------------------
G|--2--2--0-----------------0--
D|--------------3--3--2--3-----
A|-----------------------------
E|-----------------------------
Ki meri manzil hai kahan

e|--0--0-----------------------------1--0--------
B|--------3--1--3-----------1--1-----------3-----
G|--------------------0--2-----------------------
D|-----------------------------------------------
A|-----------------------------------------------
E|-----------------------------------------------
Papa kehte hain bada naam karega

E|--
B|--
G|--
D|--
A|--
E|--

Song lyrics here 
E|--
B|--
G|--
D|--
A|--
E|--

Use manual mode to free up cursor. Paste any tab in acousterr tab maker and we'll play it !!!
tabs and chords, guitar tabs, music transcription, music technology, deep learning, music information retrieval, transcribe into tabs & chords, chordify, music renditions, songsterr, reverbnation, tabulature, bollywood chords, ultimate guitar, yousician, guitar lessons, acoustic guitar, electric guitar, guitar tuner, 911 tabs