Guitar Tabs for Pal Kaisa Pal - Arijit Singh Guitar Tabs

(/) Slide Up  (\) Slide Down  (h) Hammer On  (p) Pull Off  (b) Bend (r) Release (v) Vibrato

Tabs for Song : Pal Kaisa Pal

Pal kaisa pal Pal mein jaaye phisal Chaah ke bhi pakad paaun na
E|--7--------7--------------------------------------7-----
B|-----8--10----8--10-10-7--8--10-7--8--8--7--8--10----7--
G|--------------------------------------------------------
D|--------------------------------------------------------
A|--------------------------------------------------------
E|--------------------------------------------------------

Milke juda ho na paayega dil Dil ko main samajh paaun na
E|--7--------7-----10-10-------------------------------7-----
B|-----8--10----8--------10-10-8--10-7--8--8--7--8--10----7--
G|-----------------------------------------------------------
D|-----------------------------------------------------------
A|-----------------------------------------------------------
E|-----------------------------------------------------------

Khwahish hai itni si yaar
E|--10-10-10-10-7--7---7/8--
B|--------------------------
G|--------------------------
D|--------------------------
A|--------------------------
E|--------------------------

Der tak rukna abki baar
E|--10-10-10-10-12-10-7--8--7-----8--7--
B|-----------------------------10-------
G|--------------------------------------
D|--------------------------------------
A|--------------------------------------
E|--------------------------------------

Pyaar ke lamhe ho’n hazaar Unhi mein sadiyaan jee lunga main
E|--10-10-10-10-15-14-12-10-------------7--------7--8--7-----
B|--------------------------10-10-10-8-----10-10----------10-
G|-----------------------------------------------------------
D|-----------------------------------------------------------
A|-----------------------------------------------------------
E|-----------------------------------------------------------

Oh…...
E|--7--------------
B|-----10-8--10-8--
G|-----------------
D|-----------------
A|-----------------
E|-----------------

Pal kaisa pal Pal mein jaaye phisal Chaah ke bhi pakad paaun na
E|--7--------7--------------------------------------7-----
B|-----8--10----8--10-10-7--8--10-7--8--8--7--8--10----7--
G|--------------------------------------------------------
D|--------------------------------------------------------
A|--------------------------------------------------------
E|--------------------------------------------------------

Milke juda ho na paayega dil Dil ko main samajh paaun na
E|--7--------7-----10-10-------------------------------7-----
B|-----8--10----8--------10-10-8--10-7--8--8--7--8--10----7--
G|-----------------------------------------------------------
D|-----------------------------------------------------------
A|-----------------------------------------------------------
E|-----------------------------------------------------------

Samajh paaun na… Samajh paaun na…
E|-----------10-10-7---7/-8h---7--7-----8--7--------
B|--7--8--10-------------------------10-------10-8--
G|--------------------------------------------------
D|--------------------------------------------------
A|--------------------------------------------------
E|--------------------------------------------------

tabs and chords, guitar tabs, music transcription, music technology, deep learning, music information retrieval, transcribe into tabs & chords, chordify, music renditions, songsterr, reverbnation, tabulature, bollywood chords, ultimate guitar, yousician, guitar lessons, acoustic guitar, electric guitar, guitar tuner, 911 tabs