Pachelbels Canon - Johann Pachelbel - Guitar Tabs

Rhythm Guitar I
    
    D                                                                                                                                                                                                                                                                                                                                                                                                                                                                                                                                                                                             D                                                                                                                                                                                                                                                                                                                                                                                                                                                                                                                                                                                             
E|--2-----2--2--2-----2----|------0--0--0-----0----|
B|--3-----3--3--3-----3----|------2--2--2-----2----|
G|--2-----2--2--2-----2----|------2--2--2-----2----|
D|--0-----0--0--0-----0----|------2--2--2-----2----|
A|-------------------------|------0--0--0-----0----|
E|-------------------------|-----------------------|

    
    Bm                                                                                                                                                                                                                                                                                                                                                                                                                                                                                                                                                                                             Bm                                                                                                                                                                                                                                                                                                                                                                                                                                                                                                                                                                                             
E|--2-----2-----2-----2----|------2--2--2-----2----|
B|--3-----3-----3-----3----|------2--2--2-----2----|
G|--4-----4-----4-----4----|------2--2--2-----2----|
D|--4-----4-----4-----4----|------4--4--4-----4----|
A|--2-----2-----2-----2----|------4--4--4-----4----|
E|-------------------------|------2--2--2-----2----|

    
    G                                                                                                                                                                                                                                                                                                                                                                                                                                                                                                                                                                                             G                                                                                                                                                                                                                                                                                                                                                                                                                                                                                                                                                                                             
E|--3-----3--3--3-----3----|------2--2--2-----2----|
B|--3-----3--3--3-----3----|------3--3--3-----3----|
G|--0-----0--0--0-----0----|------2--2--2-----2----|
D|--0-----0--0--0-----0----|------0--0--0-----0----|
A|--2-----2--2--2-----2----|-----------------------|
E|--3-----3--3--3-----3----|-----------------------|

    
    G                                                                                                                                                                                                                                                                                                                                                                                                                                                                                                                                                                                             G                                                                                                                                                                                                                                                                                                                                                                                                                                                                                                                                                                                             
E|--3-----3-----3-----3----|------0--0--0-----0----|
B|--3-----3-----3-----3----|------2--2--2-----2----|
G|--0-----0-----0-----0----|------2--2--2-----2----|
D|--0-----0-----0-----0----|------2--2--2-----2----|
A|--2-----2-----2-----2----|------0--0--0-----0----|
E|--3-----3-----3-----3----|-----------------------|

    
    D                                                                                                                                                                                                                                                                                                                                                                                                                                                                                                                                                                                             D                                                                                                                                                                                                                                                                                                                                                                                                                                                                                                                                                                                             
E|--2-----2--2--2-----2----|------0--0--0-----0----|
B|--3-----3--3--3-----3----|------2--2--2-----2----|
G|--2-----2--2--2-----2----|------2--2--2-----2----|
D|--0-----0--0--0-----0----|------2--2--2-----2----|
A|-------------------------|------0--0--0-----0----|
E|-------------------------|-----------------------|

    
    Bm                                                                                                                                                                                                                                                                                                                                                                                                                                                                                                                                                                                             Bm                                                                                                                                                                                                                                                                                                                                                                                                                                                                                                                                                                                             
E|--2-----2-----2-----2----|------2--2--2-----2----|
B|--3-----3-----3-----3----|------2--2--2-----2----|
G|--4-----4-----4-----4----|------2--2--2-----2----|
D|--4-----4-----4-----4----|------4--4--4-----4----|
A|--2-----2-----2-----2----|------4--4--4-----4----|
E|-------------------------|------2--2--2-----2----|

    
    G                                                                                                                                                                                                                                                                                                                                                                                                                                                                                                                                                                                             G                                                                                                                                                                                                                                                                                                                                                                                                                                                                                                                                                                                             
E|--3-----3--3--3-----3----|------2--2--2-----2----|
B|--3-----3--3--3-----3----|------3--3--3-----3----|
G|--0-----0--0--0-----0----|------2--2--2-----2----|
D|--0-----0--0--0-----0----|------0--0--0-----0----|
A|--2-----2--2--2-----2----|-----------------------|
E|--3-----3--3--3-----3----|-----------------------|

    
    G                                                                                                                                                                                                                                                                                                                                                                                                                                                                                                                                                                                             G                                                                                                                                                                                                                                                                                                                                                                                                                                                                                                                                                                                             
E|--3-----3-----3-----3----|------0--0--0-----0----|
B|--3-----3-----3-----3----|------2--2--2-----2----|
G|--0-----0-----0-----0----|------2--2--2-----2----|
D|--0-----0-----0-----0----|------2--2--2-----2----|
A|--2-----2-----2-----2----|------0--0--0-----0----|
E|--3-----3-----3-----3----|-----------------------|

    
    D                                                                                                                                                                                                                                                                                                                                                                                                                                                                                                                                                                                             D                                                                                                                                                                                                                                                                                                                                                                                                                                                                                                                                                                                             
E|--2-----2--2--2-----2----|------0--0--0-----0----|
B|--3-----3--3--3-----3----|------2--2--2-----2----|
G|--2-----2--2--2-----2----|------2--2--2-----2----|
D|--0-----0--0--0-----0----|------2--2--2-----2----|
A|-------------------------|------0--0--0-----0----|
E|-------------------------|-----------------------|

    
    Bm                                                                                                                                                                                                                                                                                                                                                                                                                                                                                                                                                                                             Bm                                                                                                                                                                                                                                                                                                                                                                                                                                                                                                                                                                                             
E|--2-----2-----2-----2----|------2--2--2-----2----|
B|--3-----3-----3-----3----|------2--2--2-----2----|
G|--4-----4-----4-----4----|------2--2--2-----2----|
D|--4-----4-----4-----4----|------4--4--4-----4----|
A|--2-----2-----2-----2----|------4--4--4-----4----|
E|-------------------------|------2--2--2-----2----|

    
    G                                                                                                                                                                                                                                                                                                                                                                                                                                                                                                                                                                                             G                                                                                                                                                                                                                                                                                                                                                                                                                                                                                                                                                                                             
E|--3-----3--3--3-----3----|------2--2--2-----2----|
B|--3-----3--3--3-----3----|------3--3--3-----3----|
G|--0-----0--0--0-----0----|------2--2--2-----2----|
D|--0-----0--0--0-----0----|------0--0--0-----0----|
A|--2-----2--2--2-----2----|-----------------------|
E|--3-----3--3--3-----3----|-----------------------|

    
    G                                                                                                                                                                                                                                                                                                                                                                                                                                                                                                                                                                                             G                                                                                                                                                                                                                                                                                                                                                                                                                                                                                                                                                                                             
E|--3-----3-----3-----3----|------0--0--0-----0----|
B|--3-----3-----3-----3----|------2--2--2-----2----|
G|--0-----0-----0-----0----|------2--2--2-----2----|
D|--0-----0-----0-----0----|------2--2--2-----2----|
A|--2-----2-----2-----2----|------0--0--0-----0----|
E|--3-----3-----3-----3----|-----------------------|

    
    D                                                                                                                                                                                                                                                                                                                                                                                                                                                                                                                                                                                             D                                                                                                                                                                                                                                                                                                                                                                                                                                                                                                                                                                                             
E|--2-----2--2--2-----2----|------0--0--0-----0----|
B|--3-----3--3--3-----3----|------2--2--2-----2----|
G|--2-----2--2--2-----2----|------2--2--2-----2----|
D|--0-----0--0--0-----0----|------2--2--2-----2----|
A|-------------------------|------0--0--0-----0----|
E|-------------------------|-----------------------|

    
    Bm                                                                                                                                                                                                                                                                                                                                                                                                                                                                                                                                                                                             Bm                                                                                                                                                                                                                                                                                                                                                                                                                                                                                                                                                                                             
E|--2-----2-----2-----2----|------2--2--2-----2----|
B|--3-----3-----3-----3----|------2--2--2-----2----|
G|--4-----4-----4-----4----|------2--2--2-----2----|
D|--4-----4-----4-----4----|------4--4--4-----4----|
A|--2-----2-----2-----2----|------4--4--4-----4----|
E|-------------------------|------2--2--2-----2----|

    
    G                                                                                                                                                                                                                                                                                                                                                                                                                                                                                                                                                                                             G                                                                                                                                                                                                                                                                                                                                                                                                                                                                                                                                                                                             
E|--3-----3--3--3-----3----|------2--2--2-----2----|
B|--3-----3--3--3-----3----|------3--3--3-----3----|
G|--0-----0--0--0-----0----|------2--2--2-----2----|
D|--0-----0--0--0-----0----|------0--0--0-----0----|
A|--2-----2--2--2-----2----|-----------------------|
E|--3-----3--3--3-----3----|-----------------------|

    
    G                                                                                                                                                                                                                                                                                                                                                                                                                                                                                                                                                                                             G                                                                                                                                                                                                                                                                                                                                                                                                                                                                                                                                                                                             
E|--3-----3-----3-----3----|------0--0--0-----0----|
B|--3-----3-----3-----3----|------2--2--2-----2----|
G|--0-----0-----0-----0----|------2--2--2-----2----|
D|--0-----0-----0-----0----|------2--2--2-----2----|
A|--2-----2-----2-----2----|------0--0--0-----0----|
E|--3-----3-----3-----3----|-----------------------|

    
    D                                                                                                                                                                                                                                                                                                                                                                                                                                                                                                                                                                                             D                                                                                                                                                                                                                                                                                                                                                                                                                                                                                                                                                                                             
E|--2-----2--2--2-----2----|------0--0--0-----0----|
B|--3-----3--3--3-----3----|------2--2--2-----2----|
G|--2-----2--2--2-----2----|------2--2--2-----2----|
D|--0-----0--0--0-----0----|------2--2--2-----2----|
A|-------------------------|------0--0--0-----0----|
E|-------------------------|-----------------------|

    
    Bm                                                                                                                                                                                                                                                                                                                                                                                                                                                                                                                                                                                             Bm                                                                                                                                                                                                                                                                                                                                                                                                                                                                                                                                                                                             
E|--2-----2-----2-----2----|------2--2--2-----2----|
B|--3-----3-----3-----3----|------2--2--2-----2----|
G|--4-----4-----4-----4----|------2--2--2-----2----|
D|--4-----4-----4-----4----|------4--4--4-----4----|
A|--2-----2-----2-----2----|------4--4--4-----4----|
E|-------------------------|------2--2--2-----2----|

    
    G                                                                                                                                                                                                                                                                                                                                                                                                                                                                                                                                                                                             G                                                                                                                                                                                                                                                                                                                                                                                                                                                                                                                                                                                             
E|--3-----3--3--3-----3----|------2--2--2-----2----|
B|--3-----3--3--3-----3----|------3--3--3-----3----|
G|--0-----0--0--0-----0----|------2--2--2-----2----|
D|--0-----0--0--0-----0----|------0--0--0-----0----|
A|--2-----2--2--2-----2----|-----------------------|
E|--3-----3--3--3-----3----|-----------------------|

    
    G                                                                                                                                                                                                                                                                                                                                                                                                                                                                                                                                                                                             G                                                                                                                                                                                                                                                                                                                                                                                                                                                                                                                                                                                             
E|--3-----3-----3-----3----|------0--0--0-----0----|
B|--3-----3-----3-----3----|------2--2--2-----2----|
G|--0-----0-----0-----0----|------2--2--2-----2----|
D|--0-----0-----0-----0----|------2--2--2-----2----|
A|--2-----2-----2-----2----|------0--0--0-----0----|
E|--3-----3-----3-----3----|-----------------------|

    
    D                                                                                                                                                                                                                                                                                                                                                                                                                                                                                                                                                                                             D                                                                                                                                                                                                                                                                                                                                                                                                                                                                                                                                                                                             
E|--2-----2--2--2-----2----|------0--0--0-----0----|
B|--3-----3--3--3-----3----|------2--2--2-----2----|
G|--2-----2--2--2-----2----|------2--2--2-----2----|
D|--0-----0--0--0-----0----|------2--2--2-----2----|
A|-------------------------|------0--0--0-----0----|
E|-------------------------|-----------------------|

    
    Bm                                                                                                                                                                                                                                                                                                                                                                                                                                                                                                                                                                                             Bm                                                                                                                                                                                                                                                                                                                                                                                                                                                                                                                                                                                             
E|--2-----2-----2-----2----|------2--2--2-----2----|
B|--3-----3-----3-----3----|------2--2--2-----2----|
G|--4-----4-----4-----4----|------2--2--2-----2----|
D|--4-----4-----4-----4----|------4--4--4-----4----|
A|--2-----2-----2-----2----|------4--4--4-----4----|
E|-------------------------|------2--2--2-----2----|

    
    G                                                                                                                                                                                                                                                                                                                                                                                                                                                                                                                                                                                             G                                                                                                                                                                                                                                                                                                                                                                                                                                                                                                                                                                                             
E|--3-----3--3--3-----3----|------2--2--2-----2----|
B|--3-----3--3--3-----3----|------3--3--3-----3----|
G|--0-----0--0--0-----0----|------2--2--2-----2----|
D|--0-----0--0--0-----0----|------0--0--0-----0----|
A|--2-----2--2--2-----2----|-----------------------|
E|--3-----3--3--3-----3----|-----------------------|

    
    G                                                                                                                                                                                                                                                                                                                                                                                                                                                                                                                                                                                             G                                                                                                                                                                                                                                                                                                                                                                                                                                                                                                                                                                                             
E|--3-----3-----3-----3----|------0--0--0-----0----|
B|--3-----3-----3-----3----|------2--2--2-----2----|
G|--0-----0-----0-----0----|------2--2--2-----2----|
D|--0-----0-----0-----0----|------2--2--2-----2----|
A|--2-----2-----2-----2----|------0--0--0-----0----|
E|--3-----3-----3-----3----|-----------------------|

    
    D                                                                                                                                                                                                                                                                                                                                                                                                                                                                                                                                                                                             D                                                                                                                                                                                                                                                                                                                                                                                                                                                                                                                                                                                             
E|--2-----2--2--2-----2----|------0--0--0-----0----|
B|--3-----3--3--3-----3----|------2--2--2-----2----|
G|--2-----2--2--2-----2----|------2--2--2-----2----|
D|--0-----0--0--0-----0----|------2--2--2-----2----|
A|-------------------------|------0--0--0-----0----|
E|-------------------------|-----------------------|

    
    Bm                                                                                                                                                                                                                                                                                                                                                                                                                                                                                                                                                                                             Bm                                                                                                                                                                                                                                                                                                                                                                                                                                                                                                                                                                                             
E|--2-----2-----2-----2----|------2--2--2-----2----|
B|--3-----3-----3-----3----|------2--2--2-----2----|
G|--4-----4-----4-----4----|------2--2--2-----2----|
D|--4-----4-----4-----4----|------4--4--4-----4----|
A|--2-----2-----2-----2----|------4--4--4-----4----|
E|-------------------------|------2--2--2-----2----|

    
    G                                                                                                                                                                                                                                                                                                                                                                                                                                                                                                                                                                                             G                                                                                                                                                                                                                                                                                                                                                                                                                                                                                                                                                                                             
E|--3-----3--3--3-----3----|------2--2--2-----2----|
B|--3-----3--3--3-----3----|------3--3--3-----3----|
G|--0-----0--0--0-----0----|------2--2--2-----2----|
D|--0-----0--0--0-----0----|------0--0--0-----0----|
A|--2-----2--2--2-----2----|-----------------------|
E|--3-----3--3--3-----3----|-----------------------|

    
    G                                                                                                                                                                                                                                                                                                                                                                                                                                                                                                                                                                                             G                                                                                                                                                                                                                                                                                                                                                                                                                                                                                                                                                                                             
E|--3-----3-----3-----3----|------0--0--0-----0----|
B|--3-----3-----3-----3----|------2--2--2-----2----|
G|--0-----0-----0-----0----|------2--2--2-----2----|
D|--0-----0-----0-----0----|------2--2--2-----2----|
A|--2-----2-----2-----2----|------0--0--0-----0----|
E|--3-----3-----3-----3----|-----------------------|

    
    D                                                                                                                                                                                                                                                                                                                                                                                                                                                                                                                                                                                             D                                                                                                                                                                                                                                                                                                                                                                                                                                                                                                                                                                                             
E|--2-----2--2--2-----2----|------0--0--0-----0----|
B|--3-----3--3--3-----3----|------2--2--2-----2----|
G|--2-----2--2--2-----2----|------2--2--2-----2----|
D|--0-----0--0--0-----0----|------2--2--2-----2----|
A|-------------------------|------0--0--0-----0----|
E|-------------------------|-----------------------|

    
    Bm                                                                                                                                                                                                                                                                                                                                                                                                                                                                                                                                                                                             Bm                                                                                                                                                                                                                                                                                                                                                                                                                                                                                                                                                                                             
E|--2-----2-----2-----2----|------2--2--2-----2----|
B|--3-----3-----3-----3----|------2--2--2-----2----|
G|--4-----4-----4-----4----|------2--2--2-----2----|
D|--4-----4-----4-----4----|------4--4--4-----4----|
A|--2-----2-----2-----2----|------4--4--4-----4----|
E|-------------------------|------2--2--2-----2----|

About Pachelbel's Canon - Johann Pachelbel's Canon is an accompanied canon by 3 violins and basso continuo . Neither the date nor circumstances of composition are known . The oldest surviving manuscript copy of the piece dates from 19th century . Pachelbel's Canon, although popular during his lifetime, went out of style, and remained in obscurity for centuries . A 1968 arrangement and recording of it by the Jean-Fran├žois Paillard chamber orchestra gained popularity . By the early 1980s its presence as background music was deemed inescapable . The canon was originally scored for three violins and basso continuo and paired with a gigue . Both movements are in the key of D major . Although a true canon at the unison in Pachelbel's Canon had an affiliation to band(s) - Pachelbel's Canon.

tabs and chords, guitar tabs, music transcription, music technology, deep learning, music information retrieval, transcribe into tabs & chords, chordify, music renditions, songsterr, reverbnation, tabulature, bollywood chords, ultimate guitar, yousician, guitar lessons, acoustic guitar, electric guitar, guitar tuner, 911 tabs