Canon In C - Johann Pachelbel - Guitar Tabs

Right
    
                                                                                                                                                                                                                                                                                                                                                                                                                                                                                                                                                                                                                                                                                                                                                                                                                                                                                                                                                                                                                                                                                                                                                                                              
E|-----------1-------------|-----------------------|
B|-------------------------|---------3-------------|
G|-------------------------|-----------------------|
D|-------------------------|-----------------------|
A|-------------------------|-----------------------|
E|-------------------------|-----------------------|

    
                                                                                                                                                                                                                                                                                                                                                                                                                                                                                                                                                                                                                                                                                                                                                                                                                                                                                                                                                                                                                                                                                                                                                                                              
E|-----------0-------------|---------1-------------|
B|-------------------------|-----------------------|
G|-------------------------|-----------------------|
D|-------------------------|-----------------------|
A|-------------------------|-----------------------|
E|-------------------------|-----------------------|

    
                                                                                                                                                                                                                                                                                                                                                                                                                                                                                                                                                                                                                                                                                                                                                                                                                                                                                                                                                                                                                                                                                                                                                                                              
E|--0----------------------|------0-----3-----5----|
B|--1-----0----------------|1-----------3----------|
G|--0-----0-----2----------|2-----------4----------|
D|--------0----------------|2----------------------|
A|-------------------------|-----------------------|
E|-------------------------|-----------------------|

    
                                                                                                                                                                                                                                                                                                                                                                                                                                                                                                                                                                                                                                                                                                                                                                                                                                                                                                                                                                                                                                                                                                                                                                                              
E|--1-----------0----------|-----------------------|
B|--1-----1-----1----------|------1-----1-----1--0-|
G|--2-----------0----------|2----------------------|
D|-------------------------|3-----------3----------|
A|-------------------------|3----------------------|
E|-------------------------|-----------------------|

    
                                                                                                                                                                                                                                                                                                                                                                                                                                                                                                                                                                                                                                                                                                                                                                                                                                                                                                                                                                                                                                                                                                                                                                                              
E|-------------------------|------0-----3--0--3--5-|
B|--1--0--1-----------0----|1----------------------|
G|--------------0----------|-----------------------|
D|-------------------------|-----------------------|
A|-------------------------|-----------------------|
E|-------------------------|-----------------------|

    
                                                                                                                                                                                                                                                                                                                                                                                                                                                                                                                                                                                                                                                                                                                                                                                                                                                                                                                                                                                                                                                                                                                                                                                              
E|--1--0-----1--0----------|-----------------------|
B|--------3--------3--1--0-|---------1--1-----1--0-|
G|-------------------------|2--0--2----------------|
D|-------------------------|-----------------------|
A|-------------------------|-----------------------|
E|-------------------------|-----------------------|

    
                                                                                                                                                                                                                                                                                                                                                                                                                                                                                                                                                                                                                                                                                                                                                                                                                                                                                                                                                                                                                                                                                                                                                                                              
E|-------------------------|------0-----3--0--3--5-|
B|--1--0--1-----------0----|1----------------------|
G|--------------0----------|-----------------------|
D|-------------------------|-----------------------|
A|-------------------------|-----------------------|
E|-------------------------|-----------------------|

    
                                                                                                                                                                                                                                                                                                                                                                                                                                                                                                                                                                                                                                                                                                                                                                                                                                                                                                                                                                                                                                                                                                                                                                                              
E|--1--0-----1--0----------|--------------------------|
B|--------3--------3--1--0-|---------1--1-----0--1--3-|
G|-------------------------|2--0--2-------------------|
D|-------------------------|--------------------------|
A|-------------------------|--------------------------|
E|-------------------------|--------------------------|

    
                                                                                                                                                                                                                                                                                                                                                                                                                                                                                                                                                                                                                                                                                                                                                                                                                                                                                                                                                                                                                                                                                                                                                                                              
E|--0-----0--------------0--1--0-------|-----------------------------------|
B|-----------3--1--3--------------3--1-|------1--0--1--0-------------------|
G|-------------------------------------|------------------0--------------0-|
D|-------------------------------------|------------------------2-----3----|
A|-------------------------------------|-----------------------------------|
E|-------------------------------------|-----------------------------------|

    
                                                                                                                                                                                                                                                                                                                                                                                                                                                                                                                                                                                                                                                                                                                                                                                                                                                                                                                                                                                                                                                                                                                                                                                              
E|----------------------------|--------------------------------|
B|--------0-----1-------------|---------------1--1-----0--1--3-|
G|--2--------------0----------|2-----------2-------------------|
D|----------------------------|---------3----------------------|
A|----------------------------|--------------------------------|
E|----------------------------|--------------------------------|

    
                                                                                                                                                                                                                                                                                                                                                                                                                                                                                                                                                                                                                                                                                                                                                                                                                                                                                                                                                                                                                                                                                                                                                                                              
E|--0-----0--------------0--1--0-------|--------------------------------------|
B|-----------3--1--3--------------3--1-|------1-----0--1--0-------------------|
G|-------------------------------------|---------------------0--------------0-|
D|-------------------------------------|---------------------------2-----3----|
A|-------------------------------------|--------------------------------------|
E|-------------------------------------|--------------------------------------|

    
                                                                                                                                                                                                                                                                                                                                                                                                                                                                                                                                                                                                                                                                                                                                                                                                                                                                                                                                                                                                                                                                                                                                                                                              
E|-----------1--0-------------|--------------------------------|
B|--------1--------3--1-------|---------------1--0-----1--3--1-|
G|--2-----------------------0-|2-----------2-------------------|
D|----------------------------|---------3----------------------|
A|----------------------------|--------------------------------|
E|----------------------------|--------------------------------|

    
                                                                                                                                                                                                                                                                                                                                                                                                                                                                                                                                                                                                 
E|--3--0--1--3--0--1--3-----------------0--1-|
B|--5--------5--------5--------0--1--3--1--3-|
G|-----------------------0--2--0--2--4-------|
D|-----------------------2--3----------------|
A|-------------------------------------------|
E|-------------------------------------------|

    
                                                                                                                                                                                                                                                                                                                                                                                                                                                                                                                                                                                                                                                                                                                                                                                                                                                                                                                                                                                                                                                                                                                                                                                              
E|--0--------0-------------------------------|-----------------------------------------|
B|--1--1--3--1-------------------------------|---1--0-----------------------------0--1-|
G|--------------------0--2--0-----0--------0-|2--------2--0-----0-----------0--2-------|
D|--------------2--3-----------3-----2--3----|---------------3-----3--2--3-------------|
A|-------------------------------------------|-----------------------------------------|
E|-------------------------------------------|-----------------------------------------|

    
                                                                                                                                                                                                                                                                                                                                                                                                                                                                                                                                                                                                 
E|-----------------------------------0--1--3-|
B|-----1--0--1--0--1--0-----0--1--3--1--3--5-|
G|--2--------------------2--0--2--4----------|
D|-------------------------------------------|
A|-------------------------------------------|
E|-------------------------------------------|

    
                                                                                                                                                                                                                                                                                                                                                                                                                                                                                                                                                                                                                                                                                                                                                                                                                                                                                                                                                                                                                                                                                                                                                                                              
E|--3--0--1--3--0--1--3-----------------0--1-|0--5--7--8--------0-----0-----0--8--7--8-|
B|--5--------5--------5--------0--1--3--1--3-|---------------------6-------------------|
G|-----------------------0--2--0--2--4-------|------------5--7-----------7-------------|
D|-----------------------2--3----------------|-----------------------------------------|
A|-------------------------------------------|-----------------------------------------|
E|-------------------------------------------|-----------------------------------------|

    
                                                                                                                                                                                                                                                                                                                                                                                                                                                                                                                                                                                                                                                                                                                                                                                                                                                                                                                                                                                                                                                                                                                                                                                              
E|--5--8--7--5--3--1--3--1--0--1--3--5--7--8-|5--8--7--8--7--5--7--8--10-8--7--8--5--7-|
B|-------------------------------------------|-----------------------------------------|
G|-------------------------------------------|-----------------------------------------|
D|-------------------------------------------|-----------------------------------------|
A|-------------------------------------------|-----------------------------------------|
E|-------------------------------------------|-----------------------------------------|

    
                                                                                                                                                                                                                                                                                                                                                                                                                                                                                                                                                                                                                                                                                                                                                                                                                                                                                                                                                                                                                                                                                                                                                                                              
E|--8--------0-------------|-----------------------|
B|--------1-----------0--3-|---------1-----------0-|
G|-----0-----------0-------|------2-----------0----|
D|-------------------------|---2-----------2-------|
A|-------------------------|-----------------------|
E|-------------------------|-----------------------|

    
                                                                                                                                                                                                                                                                                                                                                                                                                                                                                                                                                                                                                                                                                                                                                                                                                                                                                                                                                                                                                                                                                                                                                                                              
E|-------------------------|-----------------------|
B|-------------------------|---------------------0-|
G|-----------2-----------0-|---------2--------0----|
D|--------3-----------2----|------3--------0-------|
A|-----3-----------3-------|---3-------------------|
E|-------------------------|-----------------------|

    
                                                                                                                                                                                                                                                                                                                                                                                                                                                                                                                                                                                                                                                                                                                                                                                                                                                                                                                                                                                                                                                                                                                                                                                              
E|-----0--1--3--0----------------|---------0--------0----------|
B|-----1--3--5--1-----0--1--3--0-|---1--3--1--1-----1--3--1--0-|
G|--------------------0--2--4--0-|---2--4-----2--------4--2--0-|
D|-------------------------------|-----------------------------|
A|-------------------------------|-----------------------------|
E|-------------------------------|-----------------------------|

    
                                                                                                                                                                                                                                                                                                                                                                                                                                                                                                                                                                                                                                                                                                                                                                                                                                                                                                                                                                                                                                                                                                                                                                                              
E|-------------------------------|-----------------------------|
B|--------0--1--------------1----|------0--1--------0--1--3--0-|
G|-----2--0--2--2-----0--2--0--0-|---2--0--2--2-----0--2--4--0-|
D|-----3--------3-----2--3-----2-|---3--------3----------------|
A|-------------------------------|-----------------------------|
E|-------------------------------|-----------------------------|

    
                                                                                                                                                                                                                                                                                                                                                                                                                                                                                                                                                                                                                                                                                                                                                                                                                                                                                                                                                                                                                                                                                                                                                                                              
E|-----0--1--3--0--------0--1----|---------0--------3--1--0--3-|
B|-----1--3--5--1-----3--1--3--3-|---1--3--1--1-----5--3--1--5-|
G|--------------------4--------4-|---2--4-----2----------------|
D|-------------------------------|-----------------------------|
A|-------------------------------|-----------------------------|
E|-------------------------------|-----------------------------|

    
                                                                                                                                                                                                                                                                                                                                                                                                                                                                                                                                                                                                                                                                                                                                                                                                                                                                                                                                                                                                                                                                                                                                                                                              
E|--5--5--3--1--5-----3--1--0--3-|5--3-----5--3-----------5--3----------|
B|--6--6--5--3--6-----5--3--1--5-|6-----6--------6--------------0--1--3-|
G|-------------------------------|--------------------------------------|
D|-------------------------------|--------------------------------------|
A|-------------------------------|--------------------------------------|
E|-------------------------------|--------------------------------------|

    
                                                                                                                                                                                                                                                                                                                                                                                                                                                                                                                                                                                                                                                                                                                                                                                                                                                                                                                                                                                                                                                                                                                                                                                              
E|--0-----0--------------0--1--0-------|-----------------------------------|
B|-----------3--1--3--------------3--1-|------1--0--1--0-------------------|
G|-------------------------------------|------------------0--------------0-|
D|-------------------------------------|------------------------2-----3----|
A|-------------------------------------|-----------------------------------|
E|-------------------------------------|-----------------------------------|

    
                                                                                                                                                                                                                                                                                                                                                                                                                                                                                                                                                                                                                                                                                                                                                                                                                                                                                                                                                                                                                                                                                                                                                                                              
E|----------------------------|--------------------------------|
B|--------0-----1-------------|---------------1--1-----0--1--3-|
G|--2--------------0----------|2-----------2-------------------|
D|----------------------------|---------3----------------------|
A|----------------------------|--------------------------------|
E|----------------------------|--------------------------------|

    
                                                                                                                                                                                                                                                                                                                                                                                                                                                                                                                                                                                                                                                                                                                                                                                                                                                                                                                                                                                                                                                                                                                                                                                              
E|--0-----0--------------0--1--0-------|------------------------------0--3--7--8-|
B|-----------3--1--3--------------3--3-|------1-----0--1--------0--3-------------|
G|-------------------------------------|---------------------0-------------------|
D|-------------------------------------|------------------2----------------------|
A|-------------------------------------|-----------------------------------------|
E|-------------------------------------|-----------------------------------------|

About Pachelbel's Canon - Johann Pachelbel's Canon is an accompanied canon by 3 violins and basso continuo . Neither the date nor circumstances of composition are known . The oldest surviving manuscript copy of the piece dates from 19th century . Pachelbel's Canon, although popular during his lifetime, went out of style, and remained in obscurity for centuries . A 1968 arrangement and recording of it by the Jean-Fran├žois Paillard chamber orchestra gained popularity . By the early 1980s its presence as background music was deemed inescapable . The canon was originally scored for three violins and basso continuo and paired with a gigue . Both movements are in the key of D major . Although a true canon at the unison in Pachelbel's Canon had an affiliation to band(s) - Pachelbel's Canon.

tabs and chords, guitar tabs, music transcription, music technology, deep learning, music information retrieval, transcribe into tabs & chords, chordify, music renditions, songsterr, reverbnation, tabulature, bollywood chords, ultimate guitar, yousician, guitar lessons, acoustic guitar, electric guitar, guitar tuner, 911 tabs