Canon In D Major - Johann Pachelbel - Guitar Tabs

Guitar
    
                                                                                                                                                                                                                                                                                                                                                                                                                                                                                                                                                                                                                                                                                                                                                                                                                                                                                                                                                                                                                                                                                                                                                                                              
E|--14---------------------|12---------------------|
B|-------------------------|-----------------------|
G|-------------------------|-----------------------|
D|-------------------------|-----------------------|
A|-------------------------|-----------------------|
E|-------------------------|-----------------------|

    
                                                                                                                                                                                                                                                                                                                                                                                                                                                                                                                                                                                                                                                                                                                                                                                                                                                                                                                                                                                                                                                                                                                                                                                              
E|--10---------------------|-----------------------|
B|-------------------------|14---------------------|
G|-------------------------|-----------------------|
D|-------------------------|-----------------------|
A|-------------------------|-----------------------|
E|-------------------------|-----------------------|

    
                                                                                                                                                                                                                                                                                                                                                                                                                                                                                                                                                                                                                                                                                                                                                                                                                                                                                                                                                                                                                                                                                                                                                                                              
E|-------------------------|-----------------------|
B|--12---------------------|10---------------------|
G|-------------------------|-----------------------|
D|-------------------------|-----------------------|
A|-------------------------|-----------------------|
E|-------------------------|-----------------------|

    
                                                                                                                                                                                                                                                                                                                                                                                                                                                                                                                                                                                                                                                                                                                                                                                                                                                                                                                                                                                                                                                                                                                                                                                              
E|-------------------------|-----------------------|
B|--12---------------------|14---------------------|
G|-------------------------|-----------------------|
D|-------------------------|-----------------------|
A|-------------------------|-----------------------|
E|-------------------------|-----------------------|

    
                                                                                                                                                                                                                                                                                                                                                                                                                                                                                                                                                                                                                                                                                                                                                                                                                                                                                                                                                                                                                                                                                                                                                                                              
E|--14---------------------|12---------------------|
B|-------------------------|-----------------------|
G|-------------------------|-----------------------|
D|-------------------------|-----------------------|
A|-------------------------|-----------------------|
E|-------------------------|-----------------------|

    
                                                                                                                                                                                                                                                                                                                                                                                                                                                                                                                                                                                                                                                                                                                                                                                                                                                                                                                                                                                                                                                                                                                                                                                              
E|--10---------------------|-----------------------|
B|-------------------------|14---------------------|
G|-------------------------|-----------------------|
D|-------------------------|-----------------------|
A|-------------------------|-----------------------|
E|-------------------------|-----------------------|

    
                                                                                                                                                                                                                                                                                                                                                                                                                                                                                                                                                                                                                                                                                                                                                                                                                                                                                                                                                                                                                                                                                                                                                                                              
E|-------------------------|-----------------------|
B|--12---------------------|10---------------------|
G|-------------------------|-----------------------|
D|-------------------------|-----------------------|
A|-------------------------|-----------------------|
E|-------------------------|-----------------------|

    
                                                                                                                                                                                                                                                                                                                                                                                                                                                                                                                                                                                                                                                                                                                                                                                                                                                                                                                                                                                                                                                                                                                                                                                              
E|-------------------------|-----------------------|
B|--12---------------------|14---------------------|
G|-------------------------|-----------------------|
D|-------------------------|-----------------------|
A|-------------------------|-----------------------|
E|-------------------------|-----------------------|

    
                                                                                                                                                                                                                                                                                                                                                                                                                                                                                                                                                                                                                                                                                                                                                                                                                                                                                                                                                                                                                                                                                                                                                                                              
E|--10---------------------|-----------------------|
B|-------------------------|14---------------------|
G|-------------------------|-----------------------|
D|-------------------------|-----------------------|
A|-------------------------|-----------------------|
E|-------------------------|-----------------------|

    
                                                                                                                                                                                                                                                                                                                                                                                                                                                                                                                                                                                                                                                                                                                                                                                                                                                                                                                                                                                                                                                                                                                                                                                              
E|-------------------------|-----------------------|
B|--12---------------------|10---------------------|
G|-------------------------|-----------------------|
D|-------------------------|-----------------------|
A|-------------------------|-----------------------|
E|-------------------------|-----------------------|

    
                                                                                                                                                                                                                                                                                                                                                                                                                                                                                                                                                                                                                                                                                                                                                                                                                                                                                                                                                                                                                                                                                                                                                                                              
E|-------------------------|-----------------------|
B|-------------------------|-----------------------|
G|--12---------------------|11---------------------|
D|-------------------------|-----------------------|
A|-------------------------|-----------------------|
E|-------------------------|-----------------------|

    
                                                                                                                                                                                                                                                                                                                                                                                                                                                                                                                                                                                                                                                                                                                                                                                                                                                                                                                                                                                                                                                                                                                                                                                              
E|-------------------------|-----------------------|
B|-------------------------|-----------------------|
G|--12---------------------|-----------------------|
D|-------------------------|14---------------------|
A|-------------------------|-----------------------|
E|-------------------------|-----------------------|

    
                                                                                                                                                                                                                                                                                                                                                                                                                                                                                                                                                                                                                                                                                                                                                                                                                                                                                                                                                                                                                                                                                                                                                                                              
E|-------------------------|------14----17---------|
B|--------------------14---|15---------------------|
G|-------------------------|------------------14---|
D|--16----12----14---------|-----------------------|
A|-------------------------|-----------------------|
E|-------------------------|-----------------------|

    
                                                                                                                                                                                                                                                                                                                                                                                                                                                                                                                                                                                                                                                                                                                                                                                                                                                                                                                                                                                                                                                                                                                                                                                              
E|-------------------------|-----------------------|
B|-------------------------|-----------------------|
G|--16----12----14---------|-----------------------|
D|--------------------16---|12----14---------------|
A|-------------------------|-----------------------|
E|-------------------------|-----------------------|

    
                                                                                                                                                                                                                                                                                                                                                                                                                                                                                                                                                                                                                                                                                                                                                                                                                                                                                                                                                                                                                                                                                                                                                                                              
E|-------------------------|---------------14-17-19|
B|--15-14-15---------------|---15-14----14---------|
G|-----------------14------|---------15------------|
D|-----------12-11----14-11|12---------------------|
A|-------------------------|-----------------------|
E|-------------------------|-----------------------|

    
                                                                                                                                                                                                                                                                                                                                                                                                                                                                                                                                                                                                                                                                                                                                                                                                                                                                                                                                                                                                                                                                                                                                                                                              
E|--15-------15------------|-----------------------|
B|-----19-17----19-17-15---|-----------------------|
G|-----------------------18|16-14------------------|
D|-------------------------|------17-16-14-17-16-14|
A|-------------------------|-----------------------|
E|-------------------------|-----------------------|

    
                                                                                                                                                                                                                                                                                                                                                                                                                                                                                                                                                                                                                                                                                                                                                                                                                                                                                                                                                                                                                                                                                                                                                                                              
E|-------------------------|-----------------------|
B|-------------------------|-----------------------|
G|--------------14----14---|---16-14----14---------|
D|-----14-16-17----14----17|16-------17----17-16-14|
A|--17---------------------|-----------------------|
E|-------------------------|-----------------------|

    
                                                                                                                                                                                                                                                                                                                                                                                                                                                                                                                                                                                                                                                                                                                                                                                                                                                                                                                                                                                                                                                                                                                                                                                              
E|-------------------------|-----------------------|
B|-----------14-15-14------|-----------------------|
G|--------16----------16-14|---------16-14-16-14---|
D|-------------------------|17-16-14-------------17|
A|--17-14------------------|-----------------------|
E|-------------------------|-----------------------|

    
                                                                                                                                                                                                                                                                                                                                                                                                                                                                                                                                                                                                                                                                                                                                                                                                                                                                                                                                                                                                                                                                                                                                                                                              
E|--------14---------------|------------14---------|
B|--------------17---------|------15---------------|
G|-------------------------|-----------------------|
D|--16---------------------|-----------------------|
A|-------------------------|-----------------------|
E|-------------------------|-----------------------|

    
                                                                                                                                                                                                                                                                                                                                                                                                                                                                                                                                                                                                                                                                                                                                                                                                                                                                                                                                                                                                                                                                                                                                                                                              
E|--19----17---------------|19----21---------------|
B|-------------------------|-----------------------|
G|-------------------------|-----------------------|
D|-------------------------|-----------------------|
A|-------------------------|-----------------------|
E|-------------------------|-----------------------|

    
                                                                                                                                                                                                                                                                                                                                                                                                                                                                                                                                                                                                                                                                                                                                                                                                                                                                                                                                                                                                                                                                                                                                                                                              
E|--------14---------------|------------14---------|
B|--------------17---------|------15---------------|
G|-------------------------|-----------------------|
D|--16---------------------|-----------------------|
A|-------------------------|-----------------------|
E|-------------------------|-----------------------|

    
                                                                                                                                                                                                                                                                                                                                                                                                                                                                                                                                                                                                                                                                                                                                                                                                                                                                                                                                                                                                                                                                                                                                                                                              
E|--19----17---------------|19----21---------------|
B|-------------------------|-----------------------|
G|-------------------------|-----------------------|
D|-------------------------|-----------------------|
A|-------------------------|-----------------------|
E|-------------------------|-----------------------|

    
                                                                                                                                                                                                                                                                                                                                                                                                                                                                                                                                                                                                 
E|--17-14-15-17-14-15-17-------------------15|
B|--------------------------------15-17-19---|
G|-----------------------14-16-18------------|
D|-------------------------------------------|
A|-------------------------------------------|
E|-------------------------------------------|

    
                                                                                                                                                                                                                                                                                                                                                                                                                                                                                                                                                                                                                                                                                                                                                                                                                                                                                                                                                                                                                                                                                                                                                                                              
E|--14-------14------------------------------|-----------------------------------------|
B|-----15-17-------------------------15-14-15|-----------------------------------------|
G|--------------------14-16-14----14---------|---16-14----------------------------14-16|
D|--------------16-17----------17------------|17-------17-16-14-16-14----14-16-17------|
A|-------------------------------------------|------------------------17---------------|
E|-------------------------------------------|-----------------------------------------|

    
                                                                                                                                                                                                                                                                                                                                                                                                                                                                                                                                                                                                 
E|--------------------------------------14-15|
B|--------------14-15----------15-17-19------|
G|-----16-14-16-------14-16-18---------------|
D|--17---------------------------------------|
A|-------------------------------------------|
E|-------------------------------------------|

    
                                                                                                                                                                                                                                                                                                                                                                                                                                                                                                                                                                                                                                                                                                                                                                                                                                                                                                                                                                                                                                                                                                                                                                                              
E|--------------------------------14---------|-----------------------------------------|
B|--19-15-17-19-15-17-15-14-15-17----17-15-14|15-12-14-15----------------------15-14-15|
G|-------------------------------------------|---------------------12------------------|
D|-------------------------------------------|------------12-14-16----16-14-16---------|
A|-------------------------------------------|-----------------------------------------|
E|-------------------------------------------|-----------------------------------------|

About Pachelbel's Canon - Johann Pachelbel's Canon is an accompanied canon by 3 violins and basso continuo . Neither the date nor circumstances of composition are known . The oldest surviving manuscript copy of the piece dates from 19th century . Pachelbel's Canon, although popular during his lifetime, went out of style, and remained in obscurity for centuries . A 1968 arrangement and recording of it by the Jean-Fran├žois Paillard chamber orchestra gained popularity . By the early 1980s its presence as background music was deemed inescapable . The canon was originally scored for three violins and basso continuo and paired with a gigue . Both movements are in the key of D major . Although a true canon at the unison in Pachelbel's Canon had an affiliation to band(s) - Pachelbel's Canon.

tabs and chords, guitar tabs, music transcription, music technology, deep learning, music information retrieval, transcribe into tabs & chords, chordify, music renditions, songsterr, reverbnation, tabulature, bollywood chords, ultimate guitar, yousician, guitar lessons, acoustic guitar, electric guitar, guitar tuner, 911 tabs