Guitar Tabs for P

(/) Slide Up  (\) Slide Down  (h) Hammer On  (p) Pull Off  (b) Bend (r) Release (v) Vibrato (x) Muted

Tabs for Song : 
BPM : 200

x 3
E|-----------------------
B|-----------------------
G|--6--6--6--6-----------
D|--7--7--7--7-----6-----
A|--5--5--5--5-----6-----
E|-----------------6-----
ending 1
E|--------------
B|--7--7--7-----
G|--4--4--4-----
D|--5--5--5-----
A|--------------
E|--------------
ending 2
E|--------------
B|--------------
G|--7--7--7-----
D|--8--8--8-----
A|--6--6--6-----
E|--------------
sloq part
E|-----------------
B|-----------------
G|--1-----0-----0--
D|--0-----0-----0--
A|--4-----4-----4--
E|--0-----3-----5--
extened slow part is the same as above with 4 bars of the first chord and 2 of the latter 2
E|---
B|--
G|--
D|--
A|--
E|--

Use manual mode to free up cursor. Paste any tab in acousterr tab maker and we'll play it !!!
tabs and chords, guitar tabs, music transcription, music technology, deep learning, music information retrieval, transcribe into tabs & chords, chordify, music renditions, songsterr, reverbnation, tabulature, bollywood chords, ultimate guitar, yousician, guitar lessons, acoustic guitar, electric guitar, guitar tuner, 911 tabs