Bass Tabs for Red Hot Chilli Peppers - Otherside

BASS TAB
Otherside - Red Hot Chilli Peppers

Intro, Chorus & Solo
G|-----------------------------------------------------------------------------------
D|-----------------------------------------------------------------------------------
A|-----------------------------------------3-----3-----3--3--------------------------
E|--5-----5-----5--3--1-----1-----1--1--------------------------0--3-----3-----3-----

Verse
G|--------------------------------------------------------------------------------------------------------
D|------------------------------7/14----14-14----14-14--------------------------7/14----14-14-------------
A|--0-----0--0-----0--0--0--------------------------------0-----0--0-----0--0--------------------14-14-14-
E|--------------------------------------------------------------------------------------------------------

G|--------------------------------------------------------------------
D|------------------------------7/14----14-14----14-14----------------
A|--0-----0--0-----0--0--0--------------------------------------------
E|--------------------------------------------------------0--3-----5--

Pre-Chorus Verse
G|--------------------------------------------------------------------------------------------------------
D|------------------------------7/14----14-14----14-14--------------------------7/14----14-14-------------
A|--0-----0--0-----0--0--0--------------------------------0-----0--0-----0--0--------------------14-14-14-
E|--------------------------------------------------------------------------------------------------------

G|----------------------------------------------------------------------------------
D|------------------------------7/14----14-14----14-14-------------------------------
A|--0-----0--0-----0--0--0-----------------------------------------------------------
E|--------------------------------------------------------0--3-----5-----3-----5-----

G|-----------------------------------------------------------------------------------------------
D|-----------------------------------------------------------------------------------------------
A|--10----10-10----10-10-10-10----10-10----10-10----12----12-12-------12----12----12----12----12-
E|-----------------------------------------------------------------12----12----12----12----12----

Bridge
G|-----------------------------------------------------------------
D|-----------------------------------------------------------------
A|-----7--5--7-----7--5--7-------------------------x-x--10--9--5--
E|--0-----------0-----------0--5--7--8--8--7--8--8-----------------
tabs and chords, guitar tabs, music transcription, music technology, deep learning, music information retrieval, transcribe into tabs & chords, chordify, music renditions, songsterr, reverbnation, tabulature, bollywood chords, ultimate guitar, yousician, guitar lessons, acoustic guitar, electric guitar, guitar tuner, 911 tabs