Guitar Tabs for Red Hot Chilli Peppers - Californication (guitar Solo)

Red Hot Chilli Peppers - Californication (Guitar Solo)

1st Part
E|--------9--------------------9-----------------------------
B|--10-----------7h-9r7-----10--------7h-9r7-----7--7--7--7--
G|-----------------------------------------------------------
D|-----------------------------------------------------------
A|-----------------------------------------------------------
E|-----------------------------------------------------------

2nd Part
E|--------------------------------------------
B|---7h5-----------------5--7---7b-9r7--5-----
G|--------6--6-----4--6--------------------6--
D|--------------------------------------------
A|--------------------------------------------
E|--------------------------------------------

3rd Part
E|-----9--12-14-------9--12-14b16r14-
B|--10-------------10----------------
G|-----------------------------------
D|-----------------------------------
A|-----------------------------------
E|-----------------------------------

4th Part
E|--17-16-14----14-------------
B|-----------17----17-14-17-14-
G|-----------------------------
D|-----------------------------
A|-----------------------------
E|-----------------------------

5th Part
E|--------------------------
B|--14b---14b---14b---17-14-
G|--16b---16b---16b---------
D|--------------------------
A|--------------------------
E|--------------------------

6th Part
E|--14b16r14----------------------------------
B|-----------17-14-17-14----------17-15-14----
G|-----------------------16----14----------14-
D|--------------------------------------------
A|--------------------------------------------
E|--------------------------------------------
tabs and chords, guitar tabs, music transcription, music technology, deep learning, music information retrieval, transcribe into tabs & chords, chordify, music renditions, songsterr, reverbnation, tabulature, bollywood chords, ultimate guitar, yousician, guitar lessons, acoustic guitar, electric guitar, guitar tuner, 911 tabs