Bass Tabs for Red Hot Chilli Peppers - Under The Bridge

Red Hot Chilli Peppers - Under The Bridge

Chorus
G|---------------------------------------------------------------------------------------------
D|--11--------9-----------9----------------------11--------9-----------9-----------------------
A|--9---7--7-----7-----------7--9~----9--9-------9---7--7-----7-----------7--9---9/11\-9/11\9--
E|------------------9--7-----------------------------------------9--7--------------------------

G|------------------------------------------------------------------------------
D|--11--------9-----------9----------------------11--------9-----------9--------
A|--9---7--7-----7-----------7--9~-9-----9-------9---7--7-----7-----------7--9--
E|------------------9--7-----------------------------------------9--7-----------

Verse
G|-----------------------------------------       ---5/9~~
D|-----------------------------------------   3x  --------
A|-----2--------------------2-----4--------       --------
E|--0--------------4--5--0-----------5--5--       --------

Pre-Tension 
G|-----5--------------7--------------5--------------9--------7--------------5-----------
D|--------7--5--7--5-----5--3---5/7-----7--5-----------7--5-----5--3---5/7-----7--5--7--
A|--0-----------------------------------------0--0--------------------------------------
E|--------------------------------------------------------------------------------------

G|-----5--------------7--------------5--------------------------------------------------------
D|--------7--5--7--5-----5--3---5/7-----7--5--------------------------------------------------
A|--------------------------------------------------------------------------------------------
E|--0-----------------------------------------1--1--1--1--1--1--1--1--0--0--0--0--3--3--3--3--

Tension
G|-----5--------------7--------------5--------------9--------7--------------5-----------
D|--------7--5--7--5-----5--3---5/7-----7--5-----------7--5-----5--3---5/7-----7--5--7--
A|--0-----------------------------------------0--0--------------------------------------
E|--------------------------------------------------------------------------------------

End
G|-----5--------------7--------------5-----------9-----9-----------7---------------5h7p5--------
D|--------7--5--7--5-----5--3---5/7-----7--5--------------------5-----5--3---5/7----------7--5--
A|--0-----------------------------------------0-----0-----0--0----------------------------------
E|----------------------------------------------------------------------------------------------

G|-----9-----5--------------7--------------5-----------9-----9-----------7-----------
D|--------7-----7--5--7--5-----5--3---5/7-----7--5--------------------5-----5--3-----
A|--0-----------------------------------------------0-----0-----0--0--------------0--
E|-----------------------------------------------------------------------------------



tabs and chords, guitar tabs, music contests, music covers, songsterr, reverbnation, renditions, tabulature, bollywood chords, ultimate guitar, yousician, guitar lessons, torrins, fender, gibson, acoustic guitar, electric guitar, youtube covers, gootar, guitar tuner, A-Z tabs, 911 tabs