Other Friends - Guitar Tabs

(/) Slide Up  (\) Slide Down  (h) Hammer On  (p) Pull Off  (b) Bend (r) Release (v) Vibrato (x) Muted

Tabs for Song : 
BPM : 200

That's right I heard the story over and over again
Gee, it's swell to finally meet her other friends

E|--3--3--0--3--0--3--2-----3--2--0-----------------------------------0--------------------
B|-----------------------------------0-----------0--------0-----0--3-----0-----------------
G|--------------------------------------2--0--3--------0-----0-----------------0--3--2--0--
D|-----------------------------------------------------------------------------------------
A|-----------------------------------------------------------------------------------------
E|-----------------------------------------------------------------------------------------

That's right I heard the story, don't really like how it ends
Gee, it's swell to finally meet her other friends
E|--3--3--0--6--3--5--3-----7--5--3--0-----------------------------------0--------------------
B|--------------------------------------0-----------0--------0-----0--3-----0-----------------
G|-----------------------------------------0--3-----------0-----0-----------------0--3--2--0--
D|--------------------------------------------------------------------------------------------
A|--------------------------------------------------------------------------------------------
E|--------------------------------------------------------------------------------------------

What did she say about me? What did she say?
What did you do without me? What did you do?
E|--------------------------------------------------------------------------------
B|-----------------------------------0--------------------------------------0--3--
G|-----3--3--0--3--0--2--0-----0--3-----0-----3--3--0--3--0--2--0-----0--3--------
D|--------------------------------------------------------------------------------
A|--------------------------------------------------------------------------------
E|--------------------------------------------------------------------------------

Did you play games without me? What did you play?
Did you think all this time that I wouldn't find out about you?
E|--------------------------------0--3-----0--2--3--0--2--3--0--2--3--0--2--3--7--7--7--5-----6--
B|-----------------------------2-----------------------------------------------------------------
G|--3--3--0--3--0--2--0-----3--------------------------------------------------------------------
D|-----------------------------------------------------------------------------------------------
A|-----------------------------------------------------------------------------------------------
E|-----------------------------------------------------------------------------------------------

Oh that's right I heard the story over and over again
Gee, it's swell to finally meet her other friends
E|--7--7--7--6--3--0--------3--2--0--------------------------------------0-----------------------------
B|--------------------0--------------0--------------0--------0-----0--3-----0--------------------------
G|--------------------------------------2--0--3-----------0-----0-----------------0-----3-----2-----0--
D|-----------------------------------------------------------------------------------------------------
A|-----------------------------------------------------------------------------------------------------
E|-----------------------------------------------------------------------------------------------------

                   Who am I? Who am I? What are you even saying?
E|-----------------3--2--0--------7--5--3-----7--5--3--0--------2--
B|--------------------------------------------------------0--------
G|-----------------------------------------------------------3-----
D|-----------------------------------------------------------------
A|-----------------------------------------------------------------
E|-----------------------------------------------------------------

I'm the loser of the game you didn't know you were playing!
Let's play another game, this time I get to win
E|--3--0--3--0--3--0--2--0-----3--3--3--5--3--1--0-----3--3--0--7--5--3--0--------0--3--7--
B|--------------------------------------------------------------------------0--3-----------
G|-----------------------------------------------------------------------------------------
D|-----------------------------------------------------------------------------------------
A|-----------------------------------------------------------------------------------------
E|-----------------------------------------------------------------------------------------

Lives on the line
Winner takes all
Ready or not
Let's begin!
Oh, that's right I heard the story... 
E|--7--3--5--7-----7--3--5--7-----7--3--5--7--10-8--7-----7-----7--3--0--3--0--3--0--
B|-----------------------------------------------------------------------------------
G|-----------------------------------------------------------------------------------
D|-----------------------------------------------------------------------------------
A|-----------------------------------------------------------------------------------
E|-----------------------------------------------------------------------------------

...over and over again
Gee, it's swell to finally beat her other friends
Oh, that's right I heard the story...
E|--3--2--0-----------------------------------0--------------------------7-----7--7--7--6--3--5--3--
B|-----------0--------------0-----0-----0--3-----0--------------------------------------------------
G|--------------2--0--3--------0-----0-----------------0-----3--2--0--------------------------------
D|--------------------------------------------------------------------------------------------------
A|--------------------------------------------------------------------------------------------------
E|--------------------------------------------------------------------------------------------------

...don't really like how it ends
Gee, it's swell to finally beat her other
E|--3--0--0-----------------------------------0-----------------------
B|-----------0--------------0-----0-----0--3-----0--------------------
G|--------------2--0--3--------0-----0-----------------0-----3-----2--
D|--------------------------------------------------------------------
A|--------------------------------------------------------------------
E|--------------------------------------------------------------------

Other
Other friends
E|-----------0-----------------------3--------------2--
B|--0-----------------0--------------------------------
G|-----------------------------------------------------
D|-----------------------------------------------------
A|-----------------------------------------------------
E|-----------------------------------------------------

About Friends and Lovers (Gloria Loring and Carl Anderson song) : The song was written by Jay Gruska and Paul Gordon . It was first recorded as a duet by Gloria Loring and Carl Anderson in 1985 for Days of Our Lives . The country version featured the altered title of "Both to Each Other (Friends and Lovers) Gloria Loring is a singer and actress who portrayed Liz Chandler on the soap opera Days of Our Lives . Her character was a lounge singer, so Loring was often called upon to perform on-screen . Carl Anderson appeared on Days of Our Lives and performed the duet with Loring . Commercial release of this duet was delayed for months before becoming available in the summer of 1986 . Anderson portrayed Judas Iscariot in both film and stage versions of Jesus Christ Superstar . It was released in 1986. It was released as part of album Gloria Loring and Carl Anderson. The genre is pop , contemporary r&b. The track was release in 1986. Friends and Lovers (Gloria Loring and Carl Anderson song) has a significant contribution from artist(s) Jay Gruska,Paul Gordon,Gloria Loring,Carl Anderson,Doug Lenier,Juice Newton,Eddie Rabbitt.

About Gloria Loring - Gloria Loring-Lagler is known for playing Liz Chandler on Days of Our Lives for six years (1980-86) She and singer-actor Carl Anderson performed the duet "Friends and Lovers" in 1986 . Loring was born in New York City, the daughter of a professional trumpet player with the Tommy Dorsey big band as well as other renowned swing groups . She was a salesman and hospitality/restaurant Gloria Loring made an early appearance on Carol Burnett's Show (Season 1 Episode 4) which first aired October 2, 1967 . Several singles, including cover versions of Harry Nilsson's "Everybody's Talkin'" were released on Evolution label .

About Jay Gruska - Jay Gruska is an American songwriter and composer . He has composed scores for dozens of TV dramas . Over 500 hours of shows played internationally . Some of his best-known scores are for the TV shows Lois & Clark: The New Adventures of Superman, Charmed, and Supernatural . Gruska was briefly a member of Three Dog Night in 1976 . He had recording contracts with ABC Records and Warner Bros. Records with the band Maxus . He was the lead singer and songwriter .

About Carl Anderson (singer) - Anderson and Gloria Loring performed the duet "Friends and Lovers", which reached No. 2 on the Billboard Hot 100 chart in 1986 . Anderson and singer-actress Loring's duet, which reached the No.2 on the charts . He was best known for his portrayal of Judas Iscariot . Anderson was one of 12 children of James and Alberta Anderson . During his junior year of high school, Anderson enlisted in the U.S. Air Force . He returned to Lynchburg to complete high school and he graduated in 1965 . Anderson moved to Washington, D.C., in 1969, where he and some friends formed a group called "The Second Eagle", with Anderson handling the vocals . Among the many jazz and rock tunes that the Second Eagle covered were some from the album Jesus Christ Superstar . Carl Anderson (singer) had an affiliation to band(s) - Jesus Christ Superstar.

tabs and chords, guitar tabs, music transcription, music technology, deep learning, music information retrieval, transcribe into tabs & chords, chordify, music renditions, songsterr, reverbnation, tabulature, bollywood chords, ultimate guitar, yousician, guitar lessons, acoustic guitar, electric guitar, guitar tuner, 911 tabs