Guitar Tabs for Real Friends

(/) Slide Up  (\) Slide Down  (h) Hammer On  (p) Pull Off  (b) Bend (r) Release (v) Vibrato

Tabs for Song : 

Song lyrics here
E|-----------------------------------------------------------
B|-----------------------------------------------------------
G|-----0--------2--0-----------------------------0--2--------
D|--2-----2--2--------2--0--2--3--2--3--2--3--2--------2--0--
A|-----------------------------------------------------------
E|-----------------------------------------------------------

E|-----------------------------------------------------------------------------
B|-----------------------------------------------------------------------------
G|-----------------------------------------------------------------------------
D|------------------0h2---------------0h2--0--0--0--2-----0--0--2--------------
A|--3--3--3--0--3--------3--3--3--0--------------------2-----------2--2--3--2--
E|-----------------------------------------------------------------------------

E|--------------------------------------------------------------------------
B|--------------------------------------------------------------------------
G|--------------------------------------------------------------------------
D|------------------0h2---------------0h2--0--0--0--2-----0--0--2-----------
A|--3--3--3--0--3--------3--3--3--0--------------------2-----------2--2--3--
E|--------------------------------------------------------------------------

Song lyrics here
E|--------------------------------------------------------------------------------------------------
B|--------------------------------------------------------------------------------------------------
G|--------------------------------------------------------------------------------------------------
D|--2--2--2--0--0-----0-----2--2--2--0--0-----------0--2--2--2--0--0-----------2--2--2--0--0--------
A|-----------------3-----3-----------------3--0--3--------------------3--3--2-----------------3--2--
E|--------------------------------------------------------------------------------------------------

E|-----------------------------------------------------------------------------------------------
B|-----------------------------------------------------------------------------------------------
G|--0--0--0--0--0--2-----------------------------------------------------------------------------
D|--------------------2--2--2--2--0--0-----------0--2--2--2--0--0-----------2--2--2--0--0--------
A|--------------------------------------3--0--3--------------------3--3--2-----------------3--2--
E|-----------------------------------------------------------------------------------------------

Now supports capo and sound effects for vibrato/pull-off/hammer/bends etc !!! Checkout help section
tabs and chords, guitar tabs, music transcription, music technology, deep learning, music information retrieval, transcribe into tabs & chords, chordify, music renditions, songsterr, reverbnation, tabulature, bollywood chords, ultimate guitar, yousician, guitar lessons, acoustic guitar, electric guitar, guitar tuner, 911 tabs