Bass Tabs for True Friends

(/) Slide Up  (\) Slide Down  (h) Hammer On  (p) Pull Off  (b) Bend (r) Release (v) Vibrato (x) Muted

Tabs for Song : True Friends
BPM : 200

Intro (Guitar only)

Verse 
G|--------7-----------7-----------7-----------7-----
D|--------------------------------------------------
A|--5-----------5-----------5-----------5-----------
E|--------------------------------------------------

G|--------------------------------------------------
D|--------------------------------------------------
A|--------------------------2-----------------------
E|--0-----5-----3-----5-----------0-----3--2--0-----

Transition to Chorus
G|--------------------------
D|--------------------------
A|--0-----2-----3-----4-----
E|--------------------------

Chorus x 2
G|--------------------------------------------------
D|--------------------------------------------------
A|--5-----------2-----------------------------------
E|--------------------------3-----------5-----------

Transition out of Chorus
G|--------------------------------------------------
D|--------------------------------------------------
A|--2-----1-----------------------------------------
E|--------------5-----4-----3-----------5-----------

Intro (with bass)
G|--------------------------------------------------
D|--------------------------------------------------
A|--5-----2-----------------------------------------
E|--------------3-----2-----0-----5-----------------

Bridge
G|--------------------------------------------------
D|--------------------------------------------------
A|--------------2-----------------------------------
E|--2-----------------------3-----------5-----------
tabs and chords, guitar tabs, music transcription, music technology, deep learning, music information retrieval, transcribe into tabs & chords, chordify, music renditions, songsterr, reverbnation, tabulature, bollywood chords, ultimate guitar, yousician, guitar lessons, acoustic guitar, electric guitar, guitar tuner, 911 tabs