Guitar Tabs for Aye Mere Watan Ke Logon

aye mere watan k logon
E|-----------------------------------------------------
B|--------------8-----8--8--8-----8--6-----6-----6-----
G|---5/7--7--------------------------------------------
D|-----------------------------------------------------
A|-----------------------------------------------------
E|-----------------------------------------------------

zara aankh me bhar lo pani
E|-----------------------------------------------------
B|--------------8-----8--8--8-----8--6-----6-----6-----
G|---5/7--7--------------------------------------------
D|-----------------------------------------------------
A|-----------------------------------------------------
E|-----------------------------------------------------

ja saahid huye hai unki
E|-----------------------------------------------
B|--------6---8/10-10-10-10-10-8---8h10-10/12----
G|---5/7-----------------------------------------
D|-----------------------------------------------
A|-----------------------------------------------
E|-----------------------------------------------

zara yaad karo qurwani
E|--------------------------------------------
B|--12-10-10\8--8---8\6--6--10\8--8-----8-----
G|--------------------------------------------
D|--------------------------------------------
A|--------------------------------------------
E|--------------------------------------------

jab ghayal hua himalay
E|--10-10--8h10-10-10--8\7--7---8/10-10----
B|-----------------------------------------
G|-----------------------------------------
D|-----------------------------------------
A|-----------------------------------------
E|-----------------------------------------

khatre me padi aazadi
E|--10-10-10/12-12-12p10-10-10\8---8h10p8--7-----
B|-----------------------------------------------
G|-----------------------------------------------
D|-----------------------------------------------
A|-----------------------------------------------
E|-----------------------------------------------

jab tak thi saans lade woh...
E|--------5---5/8--8---8\7--------------------
B|---5/8--------------------10-8---8/10-10----
G|--------------------------------------------
D|--------------------------------------------
A|--------------------------------------------
E|--------------------------------------------

fir apni laash bicha di
E|--------------------------------------
B|--10-8---8/11-11----10\8-----10\8--8--
G|--------------------------10----------
D|--------------------------------------
A|--------------------------------------
E|--------------------------------------
tabs and chords, guitar tabs, music transcription, music technology, deep learning, music information retrieval, transcribe into tabs & chords, chordify, music renditions, songsterr, reverbnation, tabulature, bollywood chords, ultimate guitar, yousician, guitar lessons, acoustic guitar, electric guitar, guitar tuner, 911 tabs