Guitar Tabs for O Humdum - Saathiya

(/) Slide Up  (\) Slide Down  (h) Hammer On  (p) Pull Off  (b) Bend (r) Release (v) Vibrato
O Humdum - Sathiya (Hingi Movie,2002)

o hum dum...
E|-----------------------------------------------------------------------------
B|-----1-----3--------1--1--3-----1--1--1-----------1--1--3-----1--1--1--------
G|--2--------------2-----------------------2-----2-----------------------2-----
D|-----------------------------------------------------------------------------
A|-----------------------------------------------------------------------------
E|-----------------------------------------------------------------------------

o janiya sham ko...
E|-----------------------------------------------------------------------------------
B|-----1--1--3------3/5--5--3--5--5--3--5--5--5--3--------1---1h3--3---3/5--3--------
G|--2-----------------------------------------------2--------------------------2-----
D|-----------------------------------------------------------------------------------
A|-----------------------------------------------------------------------------------
E|-----------------------------------------------------------------------------------

oo sonio re
E|--------------------------------
B|--1--1--1--1--1-----0-----------
G|-----------------2-----0--2-----
D|--------------------------------
A|--------------------------------
E|--------------------------------

00 janiya re
E|--------------------------------------------
B|---1h-3p-1h3--1--1--1--1--1-----1-----------
G|-----------------------------2-----0--2-----
D|--------------------------------------------
A|--------------------------------------------
E|--------------------------------------------

dhin dhin dhana...
E|-----------------------------------------------------------------------
B|--1-----1-----1--3--1--3--3--3--3--3--3--1--3--8--8--8--5--------------
G|-----------------------------------------------------------5--7---5h7--
D|-----------------------------------------------------------------------
A|-----------------------------------------------------------------------
E|-----------------------------------------------------------------------


tabs and chords, guitar tabs, music transcription, music technology, deep learning, music information retrieval, transcribe into tabs & chords, chordify, music renditions, songsterr, reverbnation, tabulature, bollywood chords, ultimate guitar, yousician, guitar lessons, acoustic guitar, electric guitar, guitar tuner, 911 tabs