Guitar Tabs for O hum dum

Tabs for Song : O Hum Dum 

o humdum suniyo re
E|--0--3--5--3--3--3--0-----
B|--------------------------
G|--------------------------
D|--------------------------
A|--------------------------
E|--------------------------

o jaaniya suniyo re
E|--0--3--3--5--3--3--3--0-----
B|-----------------------------
G|-----------------------------
D|-----------------------------
A|-----------------------------
E|-----------------------------

o jaaniya shaam ko khidki se chori chori
E|--0--3--3--5--7--7--5--7--7--5--7--7--7--7--
B|--------------------------------------------
G|--------------------------------------------
D|--------------------------------------------
A|--------------------------------------------
E|--------------------------------------------

nange paanv jaa aayega
E|--0--3--5-----5-----7--5--0-----
B|--------------------------------
G|--------------------------------
D|--------------------------------
A|--------------------------------
E|--------------------------------

o humdum suniyo re
E|--0--3--5--3--3--3--0-----
B|--------------------------
G|--------------------------
D|--------------------------
A|--------------------------
E|--------------------------

o jaaniyan suniyo re
E|--0--3--3--5--3--3--3--0-----
B|-----------------------------
G|-----------------------------
D|-----------------------------
A|-----------------------------
E|-----------------------------

o jaaniya shaam ko khidki se chori chori
E|--0--3--3--5--7--7--5--7--7--5--7--7--7--7--
B|--------------------------------------------
G|--------------------------------------------
D|--------------------------------------------
A|--------------------------------------------
E|--------------------------------------------

nange paanv jaa aayega
E|--0--3--5-----5-----7--5--0-----
B|--------------------------------
G|--------------------------------
D|--------------------------------
A|--------------------------------
E|--------------------------------

oh suniyo re, oh janiya re
E|--3-----2--3--2--0-----3-----2--3--2--0-----
B|--------------------------------------------
G|--------------------------------------------
D|--------------------------------------------
A|--------------------------------------------
E|--------------------------------------------

oh suniyon re oh oh oh jaaniya re
E|--3-----2--3--2--0-----5--3--3--2--3--2--0-----
B|-----------------------------------------------
G|-----------------------------------------------
D|-----------------------------------------------
A|-----------------------------------------------
E|-----------------------------------------------

dheem dheem taana dheem tananana oh
E|--3--3--3--5--3--5--5--5--5--5--3--0--3-----
B|--------------------------------------------
G|--------------------------------------------
D|--------------------------------------------
A|--------------------------------------------
E|--------------------------------------------

galiyo se ayega
E|--10-10-10-10-7--5--3--5-----
B|-----------------------------
G|-----------------------------
D|-----------------------------
A|-----------------------------
E|-----------------------------

dheem dheem taana dheem tananana oh
E|--3--3--3--5--3--5--5--5--5--5--3--0--3-----
B|--------------------------------------------
G|--------------------------------------------
D|--------------------------------------------
A|--------------------------------------------
E|--------------------------------------------

neem ke ped se
E|--10-10-10-10-7--5--3--5-----
B|-----------------------------
G|-----------------------------
D|-----------------------------
A|-----------------------------
E|-----------------------------

dheem dheem taana dheem tananana oh
E|--3--3--3--5--3--5--5--5--5--5--3--0--3-----
B|--------------------------------------------
G|--------------------------------------------
D|--------------------------------------------
A|--------------------------------------------
E|--------------------------------------------

pass bulaega
E|--10-10-10-10-7--5--3--5-----
B|-----------------------------
G|-----------------------------
D|-----------------------------
A|-----------------------------
E|-----------------------------

o humdum suniyo re
E|--0--3--5--3--3--3--0-----
B|--------------------------
G|--------------------------
D|--------------------------
A|--------------------------
E|--------------------------
tabs and chords, guitar tabs, music transcription, music technology, deep learning, music information retrieval, transcribe into tabs & chords, chordify, music renditions, songsterr, reverbnation, tabulature, bollywood chords, ultimate guitar, yousician, guitar lessons, acoustic guitar, electric guitar, guitar tuner, 911 tabs