Ukulele Tabs for Dum Maro Dum Ukulele

intro
A|---------7h8--8--8--8---7h-8p-7h8---------7h8--8--8--8---7h-8p-7h8-----
E|-----10-------------------------------10-------------------------------
C|--9--------------------------------9-----------------------------------
G|-----------------------------------------------------------------------

Dam Maro Dam Mit Jaye Gham
A|--5-----7--8--5---7/8-----5--5--7--8--5---7/8--
E|-----------------------------------------------
C|-----------------------------------------------
G|-----------------------------------------------

Bolo subah sham
A|--5--3--5--7--5---5/7--7-----7-----7-----7-----
E|-----------------------------------------------
C|-----------------------------------------------
G|-----------------------------------------------

hare krishna hare ram
A|--8--7--8--7--8--7--5-----8--7--8--7--8--7--5-----
E|--------------------------------------------------
C|--------------------------------------------------
G|--------------------------------------------------

filler
A|--5-----5--5--5-----------------------------------------
E|-----------------8-----8--8--8--6-----6--6--6--5--5-----
C|--------------------------------------------------------
G|--------------------------------------------------------

Duneeya ne hamko diya kya
duneeya se hamne liya kya
A|---3/5--5--5--5-----7-----5--3-----3-----3-----3--3--3---5/7--5--------------
E|-----------------------------------------------------------------6-----6-----
C|-----------------------------------------------------------------------------
G|-----------------------------------------------------------------------------

Ham sab kee parwah kare kya, 
sabne hamara kiya kya
A|--------------------5-----3---5/7--7-----7--7--7--7--8--7---5/7-----5-----
E|---3/6--6-----6--6--------------------------------------------------------
C|--------------------------------------------------------------------------
G|--------------------------------------------------------------------------


A|--5-----5--5--5-----------------------------------------
E|-----------------8-----8--8--8--6-----6--6--6--5--5-----
C|--------------------------------------------------------
G|--------------------------------------------------------
tabs and chords, guitar tabs, music transcription, music technology, deep learning, music information retrieval, transcribe into tabs & chords, chordify, music renditions, songsterr, reverbnation, tabulature, bollywood chords, ultimate guitar, yousician, guitar lessons, acoustic guitar, electric guitar, guitar tuner, 911 tabs