Guitar Tabs for Dum Maaro Dum Mit Jaye Gum

(/) Slide Up  (\) Slide Down  (h) Hammer On  (p) Pull Off  (b) Bend (r) Release (v) Vibrato

Tabs for Song : Dum Maaro Dum

Intro (play 4 times )
E|--------------------------------------
B|---------5h6--6--6--6------5h-6p-5h6--
G|-----7--------------------------------
D|--7-----------------------------------
A|--------------------------------------
E|--------------------------------------


Dum maro dum mit jaye gum
E|-----------------------------------------------
B|-----------5--6-----6--------------5--6-----6--
G|-----7-----------7-----------7--7--------7-----
D|-----------------------------------------------
A|-----------------------------------------------
E|-----------------------------------------------

Bolo subha sham hare krishna hare ram
E|-----------------------------------------------------------------------------
B|--------------5-----5-----5-----5-----5-----5-----6--5--6--5--6--5-----------
G|-----5--5--7-----7--------------------------------------------------7--------
D|-----------------------------------------------------------------------------
A|-----------------------------------------------------------------------------
E|-----------------------------------------------------------------------------

Duniya ne humko diya kya
E|-----------------------------------------------------------------------------------
B|--------------------------5-----------------------------------------5--------------
G|------5/7--7-----7--7--7-----------7-----5-----5--------5--5--5--5-----7-----------
D|--------------------------------------------------------------------------8-----8--
A|-----------------------------------------------------------------------------------
E|-----------------------------------------------------------------------------------

Hum sab ki parwah kare kyun, san ne humara kiya kya...
E|--------------------------------------------------------------------------------
B|--------------------------------5-----5--------5--5--5--5--6--5-----------------
G|-----------------------7-----7--------------------------------------7-----7-----
D|--------8--8--8--8--------------------------------------------------------------
A|--------------------------------------------------------------------------------
E|--------------------------------------------------------------------------------

Now supports capo and sound effects for vibrato/pull-off/hammer/bends etc !!! Checkout help section
tabs and chords, guitar tabs, music contests, music covers, songsterr, reverbnation, renditions, tabulature, bollywood chords, ultimate guitar, yousician, guitar lessons, torrins, fender, gibson, acoustic guitar, electric guitar, youtube covers, gootar, guitar tuner, A-Z tabs, 911 tabs