Numero 10 - Bass Tabs

(/) Slide Up  (\) Slide Down  (h) Hammer On  (p) Pull Off  (b) Bend (r) Release (v) Vibrato (x) Muted
  INTRO              REPETIR 6 VECES 
G|--9-----8-----6--x--------------------------------------------------------------------------x--
D|-----------------x--------------------------------9--8--------------------------------9--8--x-----
A|-----------------x-----9--7--9--7--9--6-----9--------------9--7--9--7--9--6-----9-----------x-----
E|-----------------x--------------------------------------------------------------------------x-----
   PARTE RAPIDA REPETIR 4 
G|--------------------------------------------------x--
D|--------------------------------------------------x--
A|--6--6--6--6--6--6--6--7--6--6--6--6--6--6--6--7--x--
E|--------------------------------------------------x--
    REPETIR 2 VECES
G|-----------------------------------------------------------------------10----9-----x--
D|-----------------------------------10-9--------------------------------------------x--
A|--7-----8--7--8--7--10-7-----8--7--------10-7-----8--7--8--7--10-7-----------------x--
E|-----------------------------------------------------------------------------------x--
    REPETIR 3 VECES LENTO 
G|---------------------------------------------------x--
D|-----------------------------------------------------x--
A|--6--------6--7--------7--11-------11-9--------------x--
E|-----------------------------------------------------x--
    REPETIR 3 VECES RAPIDO 
G|--------------------------------------------9-----8--x--
D|-----------------------------------------------------x--
A|--6--------6--7--------7--11-------11-9--------------x--
E|-----------------------------------------------------x--

G|---
D|-----
A|-----
E|--


Tabs for Song : 
BPM : 200

Song lyrics here 
G|--
D|--
A|--
E|--

Song lyrics here 
G|--
D|--
A|--
E|--

Use manual mode to free up cursor. Paste any tab in acousterr tab maker and we'll play it !!!
tabs and chords, guitar tabs, music transcription, music technology, deep learning, music information retrieval, transcribe into tabs & chords, chordify, music renditions, songsterr, reverbnation, tabulature, bollywood chords, ultimate guitar, yousician, guitar lessons, acoustic guitar, electric guitar, guitar tuner, 911 tabs