August 10 - Guitar Tabs

(/) Slide Up  (\) Slide Down  (h) Hammer On  (p) Pull Off  (b) Bend (r) Release (v) Vibrato (x) Muted

Tabs for Song : 
BPM : 82


E|--7--5-----7--7--5-----
B|--7--5-----7--7--5-----
G|--7--6-----7--7--6-----
D|-----------------------
A|-----------------------
E|-----------------------

E|--5--5--5--5--------------------
B|--5--5--5--5--------------------
G|--6--6--6--6--------6-----6--7--
D|-----------------7-----7--------
A|--------------------------------
E|--------------------------------

E|--7--7-----10-9-----7--7--5--
B|--7--7-----10-10----7--7--5--
G|--7--7-----11-9-----7--7--6--
D|-----------------------------
A|-----------------------------
E|-----------------------------

Song lyrics here 
E|--7--7-----------------------
B|--7--7---7h10-7-----------7--
G|--7--7-----------9--7--9-----
D|-----------------------------
A|-----------------------------
E|-----------------------------

E|--5--5--5---7h9--7-----------7--
B|--5--5--5-----------10-7--10----
G|--6--6--6-----------------------
D|--------------------------------
A|--------------------------------
E|--------------------------------

E|-----------------------------------------
B|-----------------------------------7-----
G|--------------7--7--7--7--7---7h9-----9--
D|--------7--9-----------------------------
A|---7h9-----------------------------------
E|-----------------------------------------

E|--------------------------------5-----
B|--------------7--------5-----------5--
G|--------7--------7--------6-----------
D|-----------7-----------------7--------
A|---7h9--------------------------------
E|--------------------------------------

E|-----------------------------------------
B|---7h8---------8p7-----------------------
G|--------7------------9p7--------------7--
D|-----------9---------------9p7-----------
A|---------------------------------7h9-----
E|-----------------------------------------

E|-----------5-----------------------
B|--5-----------5--------------5-----
G|-----6-----------6------6h7-----7--
D|--------7--------------------------
A|-----------------------------------
E|-----------------------------------

E|--5--------5-----------------------
B|-----5--------5--------------5-----
G|--------6--------6------6h7-----7--
D|-----------------------------------
A|-----------------------------------
E|-----------------------------------

E|-----------------------------------
B|--7---------8p7--------------------
G|-----7------------9p7--------------
D|--------7---------------9p7--------
A|------------------------------7h9--
E|-----------------------------------

E|--------------------------------
B|--7---7h8-----7--7---7h8---8/10-
G|--7---7h7-----7--7---7h7---7/9--
D|--7---7h9-----7--7---7h9---9/11-
A|--------------------------------
E|--------------------------------

E|--------------------------------------------
B|--10-------10-------10-------10-------10----
G|-----9--------9--------9--------11-------11-
D|--------11-------11-------11-------11-------
A|--------------------------------------------
E|--------------------------------------------

E|-----------------------------
B|--------10-12-10----10-12\0--
G|---9h11----------11----------
D|-----------------------------
A|-----------------------------
E|-----------------------------

E|--------------5-----------5-----------5--7--
B|--------5-----------5-----------5-----------
G|---4/6-----6-----------6-----------6--------
D|--------------------------------------------
A|--------------------------------------------
E|--------------------------------------------

E|--5--------3-----------3--
B|-----3-----------3--------
G|--------4-----------4-----
D|--------------------------
A|--------------------------
E|--------------------------

E|--------------------
B|--3--2--3--5--3--2--
G|--------------------
D|--------------------
A|--------------------
E|--------------------

E|-----------2-----------2--
B|-----2-----------2--------
G|--4-----2-----------2-----
D|--------------------------
A|--------------------------
E|--------------------------

E|--------------5--------
B|--------5--------5-----
G|---4/6-----6--------6--
D|-----------------------
A|-----------------------
E|-----------------------

E|--5--7--9--10-7--------7--------7--
B|--5--7--10-10-8--8--------8--------
G|--6--7--9--11-7-----7--------7-----
D|-----------------------------------
A|-----------------------------------
E|-----------------------------------

E|-----------2--------
B|-----2--------2-----
G|--4-----2--------2--
D|--------------------
A|--------------------
E|--------------------

E|-----------------------------
B|--3--2--3--2--3--2--3--2--(3)
G|-----------------------------
D|-----------------------------
A|-----------------------------
E|-----------------------------

E|--------------------------------------7--
B|---7h10-7-----------------------7--10----
G|-----------9--7-----------7--9-----------
D|-----------------9--7--9-----------------
A|-----------------------------------------
E|-----------------------------------------

E|--7-----7-----7--10-
B|-----10----10-------
G|--------------------
D|--------------------
A|--------------------
E|--------------------

Use manual mode to free up cursor. Paste any tab in acousterr tab maker and we'll play it !!!
tabs and chords, guitar tabs, music transcription, music technology, deep learning, music information retrieval, transcribe into tabs & chords, chordify, music renditions, songsterr, reverbnation, tabulature, bollywood chords, ultimate guitar, yousician, guitar lessons, acoustic guitar, electric guitar, guitar tuner, 911 tabs