Guitar Tabs for Numero Uno

(/) Slide Up  (\) Slide Down  (h) Hammer On  (p) Pull Off  (b) Bend (r) Release (v) Vibrato (x) Muted

Tabs for Song : 
BPM : 180

Song lyrics here 
E|-------------------------------------------------------------------------
B|--------------------------------------------------------------------------
G|--------6--------6-----6--------4--------4-----4--------2--------2-----2--
D|-----7--------7-----7--------5--------5-----5--------3--------3-----3-----
A|--7--------7--------------5--------5--------------3--------3--------------
E|--------------------------------------------------------------------------

E|--------------------------------------------------------------------------
B|--------------------------------1--------1-----1--------------------------
G|--------1--------1-----1-----2--------2-----2-----------0--------0-----0--
D|-----2--------2-----2-----2--------2-----------------2--------2-----2-----
A|--2--------2--------------------------------------2--------2--------------
E|--------------------------------------------------------------------------

E|--------------------------------------------------------1--------1-----1--
B|--------------------------------1--------1-----1--------------------1-----
G|-----------------------------------------------------2--------2-----------
D|--------0--------0-----0-----2--------2-----2-----3--------3--------------
A|-----2--------2-----2-----3--------3--------------------------------------
E|--3--------3--------------------------------------------------------------

E|--------------------------------------------------------------------------
B|--------------------------------------------------------------------------
G|--------1--------1-----1--2--------3--------6--------6--------6-----6-----
D|-----2--------2-----2--------3--------5-----7-----7--------7-----7--------
A|--2--------2--------------------3--------5--7--7--------7--------------5--
E|--------------------------------------------------------------------------

E|-----------------------------------------------
B|-----------------------------------------------
G|-----4--------4-----4--------2--------2-----2--
D|--5--------5-----5--------3--------3-----3-----
A|--------5--------------3--------3--------------
E|-----------------------------------------------

E|--------------------------------------------------------------------------
B|--------------------------------1--------1-----1--------------------------
G|--------1--------1-----1-----2--------2-----2-----------0--------0-----0--
D|-----2--------2-----2-----2--------2-----------------2--------2-----2-----
A|--2--------2--------------------------------------2--------2--------------
E|--------------------------------------------------------------------------

E|--------------------------------------------------------1--------1-----1--
B|--------------------------------1--------1-----1--------------------1-----
G|-----------------------------------------------------2--------2-----------
D|--------0--------0-----0-----2--------2-----2-----3--------3--------------
A|-----2--------2-----2-----3--------3--------------------------------------
E|--3--------3--------------------------------------------------------------

E|--------------------------------------------------------------------------
B|--------------------------------------------------------------------------
G|--------1--------1-----1--2--------3--------6--6--6--6--6--6--6--6--6--6--
D|-----2--------2-----2--------3--------5-----7--7--7--7--7--7--7--7--7--7--
A|--2--------2--------------------3--------5--7--7--7--7--7--7--7--7--7--7--
E|--------------------------------------------------------------------------

E|--x-----x-----x--------------------------------x-----x-----x-----------------
B|--x-----x-----x--------------------------------x-----x-----x-----------------
G|--x--6--x--5--x--4--4--4--4--4--4--4--4--4--4--x--4--x--3--x--2--2--2--2--2--
D|--x--7--x--6--x--5--5--5--5--5--5--5--5--5--5--x--5--x--4--x--3--3--3--3--3--
A|--x--7--x--6--x--5--5--5--5--5--5--5--5--5--5--x--5--x--4--x--3--3--3--3--3--
E|--x-----x-----x--------------------------------x-----x-----x-----------------

E|-----------------x-----x-----x-----x--------------------------------x-----
B|-----------------x-----x-----x-----x--------------------------------x-----
G|--2--2--2--2--2--x--2--x--4--x--3--x--1--1--1--1--1--1--1--1--1--1--x--1--
D|--3--3--3--3--3--x--3--x--5--x--4--x--2--2--2--2--2--2--2--2--2--2--x--2--
A|--3--3--3--3--3--x--3--x--5--x--4--x--2--2--2--2--2--2--2--2--2--2--x--2--
E|-----------------x-----x-----x-----x--------------------------------x-----

E|--x-----x-----x--0--0--0--0--0--0--0--0--0--0--0--0--0--0--0--0--0--0--0--0--
B|--x-----x-----x--1--1--1--1--1--1--1--1--1--1--0--0--0--0--0--0--0--0--0--0--
G|--x--2--x--1--x--2--2--2--2--2--2--2--2--2--2--0--0--0--0--0--0--0--0--0--0--
D|--x--3--x--2--x--2--2--2--2--2--2--2--2--2--2--2--2--2--2--2--2--2--2--2--2--
A|--x--3--x--2--x--0--0--0--0--0--0--0--0--0--0--2--2--2--2--2--2--2--2--2--2--
E|--x-----x-----x--------------------------------0--0--0--0--0--0--0--0--0--0--

E|--0--0--0--0--0--0--0--0--0--0--0--0--0--0--0--0--0--0--0--0--0--0--0--0--0--
B|--0--0--0--0--0--0--0--0--0--0--0--0--0--0--0--0--0--0--0--0--0--0--0--1--1--
G|--0--0--0--0--0--0--0--0--0--0--0--0--0--0--0--0--0--0--0--0--0--0--0--0--0--
D|--2--3--2--2--2--2--2--2--2--2--2--2--2--0--0--0--0--0--0--0--0--0--0--2--2--
A|--2--3--2--2--2--2--2--2--2--2--2--2--2--2--2--2--2--2--2--2--2--2--2--3--3--
E|--0--0--0--3--3--3--3--3--3--3--3--3--3--3--3--3--3--3--3--3--3--3--3--------

E|--0--0--0--0--0--0--0--0--1--1--1--1--1--1--1--1--1--1--0--0--0--0--0--0--
B|--1--1--1--1--1--1--1--1--1--1--1--1--1--1--1--1--1--1--1--1--1--1--1--1--
G|--0--0--0--0--0--0--0--0--2--2--2--2--2--2--2--2--2--2--0--0--0--0--0--0--
D|--2--2--2--2--2--2--2--2--3--3--3--3--3--3--3--3--3--3--2--2--2--2--2--2--
A|--3--3--3--3--3--3--3--3--------------------------------3--3--3--3--3--3--
E|--------------------------------------------------------------------------

E|--0--0--0--0--1--1--1--1--1--1--1--1--1---2b-2b-2b-2b0--x--0--x--0--x--0--x--
B|--1--1--1--1--1--1--1--1--1--1--1--1--1---3b-3b-3b-3b0--x--0--x--0--x--0--x--
G|--0--0--0--0--2--2--2--2--2--2--2--2--2---2b-2b-2b-2b1--x--1--x--1--x--1--x--
D|--2--2--2--2--3--3--3--3--3--3--3--3--3---0b-0b-0b-0b2--x--2--x--2--x--2--x--
A|--3--3--3--3-----------------------------------------2--x--2--x--2--x--2--x--
E|-----------------------------------------------------0--x--0--x--0--x--0--x--

E|-----x-----x-----x-----x-----x-----x-----x-----
B|-----x-----x-----x-----x-----x-----x-----x-----
G|--4--x--4--x--4--x--4--x--6--x--6--x--6--x--6--
D|--5--x--5--x--5--x--5--x--7--x--7--x--7--x--7--
A|--5--x--5--x--5--x--5--x--7--x--7--x--7--x--7--
E|-----x-----x-----x-----x-----x-----x-----x-----

Song lyrics here 
E|--
B|--
G|--
D|--
A|--
E|--

Use manual mode to free up cursor. Paste any tab in acousterr tab maker and we'll play it !!!
tabs and chords, guitar tabs, music transcription, music technology, deep learning, music information retrieval, transcribe into tabs & chords, chordify, music renditions, songsterr, reverbnation, tabulature, bollywood chords, ultimate guitar, yousician, guitar lessons, acoustic guitar, electric guitar, guitar tuner, 911 tabs