Bass Tabs for Nono

(/) Slide Up  (\) Slide Down  (h) Hammer On  (p) Pull Off  (b) Bend (r) Release (v) Vibrato (x) Muted

Tabs for Song : 
BPM : 200

Song lyrics here
G|--------5--3--------------------------------------------------------------------x-----x-----x--
D|--------------5--4--1--2--------1--2--------------------------------------------x-----x-----x--
A|--2--3--------------------3--1--------3--1--------3-----------------------------x-----x-----x--
E|--------------------------------------------3--1-----0-----1--1--2--3--3--3--5--x--6--x--7--x--

G|-----x-----------------------x-----------12-14-12-17-0--15-0--14-------------x--------------------
D|-----x--------------------10-x--12-13-14-------------------------0--17----15-x--13-14-------------
A|-----x-----------10-12-10----x-----------------------------------------0-----x--------15-13-------
E|--8--x--10-11-12-------------x-----------------------------------------------x--------------14-13-

G|-----17-15-------------------17-15-------------------17-15-------------------17-15----------------
D|-----------17-16-15-13-------------17-16-15-13-------------17-16-15-13-------------17-16-15-13----
A|--15-------------------13-15-------------------13-15-------------------13-15-------------------13-
E|--------------------------------------------------------------------------------------------------

G|--
D|--
A|--
E|--

Song lyrics here
G|--
D|--
A|--
E|--

Paste any tab in acousterr's tab maker and we'll play it !!!
Now supports capo and sound effects for vibrato/pull-off/hammer/bends/mutes etc !!! Checkout help section
tabs and chords, guitar tabs, music transcription, music technology, deep learning, music information retrieval, transcribe into tabs & chords, chordify, music renditions, songsterr, reverbnation, tabulature, bollywood chords, ultimate guitar, yousician, guitar lessons, acoustic guitar, electric guitar, guitar tuner, 911 tabs