Guitar Chords for Nazm Nazm - Chords & Leads

Chords for song Nazm Nazm - Bareilly ki Barf
Check second track for leads - from tracks button above

    G           D                    G           D
E|--3-----------2--------------------3-----------2--------------------
B|--3-----------3--------------------3-----------3--------------------
G|--4-----------2--------------------4-----------2--------------------
D|--5--------------------------------5--------------------------------
A|--5--------------------------------5--------------------------------
E|--3--------------------------------3--------------------------------

Tu Nazm Nazm Sa Mere
       G                          D              Em
E|-----3--------------------------2--------------------------
B|-----3--------------------------3--------------------------
G|-----4--------------------------2--------------------------
D|-----5-----------------------------------------2-----------
A|-----5-----------------------------------------2-----------
E|-----3-----------------------------------------------------

Main Khwab Khwa Sa teri
       Am          C           D              G
E|-----------------------------2--------------3-----
B|-----1-----------1-----------3--------------3-----
G|-----2-----------------------2--------------4-----
D|-----2-----------2--------------------------5-----
A|-----------------3--------------------------5-----
E|--------------------------------------------3-----

Haath thaam le piya
                Am                      C
E|-----------------------------------------------
B|--------------1-----------------------1--------
G|--------------2--------------------------------
D|--------------2-----------------------2--------
A|--------------------------------------3--------
E|-----------------------------------------------

             D                             G
E|-----------2-----------------------------3-----------
B|-----------3-----------------------------3-----------
G|-----------2-----------------------------4-----------
D|-----------------------------------------5-----------
A|-----------------------------------------5-----------
E|-----------------------------------------3-----------

mere dil ke lifafe me
          G                             C           Em
E|--------3--------------------------------------------------
B|--------3-----------------------------1--------------------
G|--------4--------------------------------------------------
D|--------5-----------------------------2-----------2--------
A|--------5-----------------------------3-----------2--------
E|--------3--------------------------------------------------

       Am                   D           G
E|--------------------------2-----------3-----
B|-----1--------------------3-----------3-----
G|-----2--------------------2-----------4-----
D|-----2--------------------------------5-----
A|--------------------------------------5-----
E|--------------------------------------3-----

Guitar Tabs for Nazm Nazm - Chords & Leads





E|--------------------------------------------------------------------
B|--0--0---0/3-----------------------0--0---0/3-----------------------
G|--------------2--2---2/4--4--4-----------------2--2---2/4--4--4-----
D|--------------------------------------------------------------------
A|--------------------------------------------------------------------
E|--------------------------------------------------------------------



E|-----------------------------------------------------------
B|-----------3--3--------------------------------------------
G|--0--0--0---------4p2--4--4-----0---0/4--2-----------------
D|--------------------------------------------5--4--2--2-----
A|-----------------------------------------------------------
E|-----------------------------------------------------------



E|--------------------------------------------------
B|-----------------------------3--3--3--------------
G|-----------2--2---4\2--2--------------2--2--0-----
D|--0--2--2-----------------------------------------
A|--------------------------------------------------
E|--------------------------------------------------



E|-----------------------------------------------
B|-----------------------------------------------
G|--0--0--2--0--4--2---2/4--------2-----5--5-----
D|-----------------------------5-----5-----------
A|-----------------------------------------------
E|-----------------------------------------------


E|-----------------------------------------------------
B|-----------5--3-----------------------3--1-----------
G|--2--4--5--------5--4--2--2-----2--2--------4--4-----
D|-----------------------------------------------------
A|-----------------------------------------------------
E|-----------------------------------------------------



E|-----------------------------------------------------------
B|-----------------------------------------------------------
G|--0--0--0--0--2---0/2---2/4-----0--0--0--4--2--0-----------
D|---------------------------------------------------4p2-----
A|-----------------------------------------------------------
E|-----------------------------------------------------------


E|--------------------------------------------
B|-----------------3--3-----------------------
G|--------2--2--2--------------4--2--2---2p0--
D|-----2-----------------4--5-----------------
A|--5-----------------------------------------
E|--------------------------------------------

tabs and chords, guitar tabs, music transcription, music technology, deep learning, music information retrieval, transcribe into tabs & chords, chordify, music renditions, songsterr, reverbnation, tabulature, bollywood chords, ultimate guitar, yousician, guitar lessons, acoustic guitar, electric guitar, guitar tuner, 911 tabs