Guitar Chords for Give Me Some Sunshine - Chords & Leads - 3 Idiots

Chords & Leads for Give Me Some Sunshine - 3 idiots
Switch to second track for leads


saari umra
    C           G        C           G        C           G        F           G
E|--0-----------3--------0-----------3--------0-----------3--------1-----------3--------
B|--1-----------3--------1-----------3--------1-----------3--------1-----------3--------
G|--0-----------4--------0-----------4--------0-----------4--------2-----------4--------
D|--2-----------5--------2-----------5--------2-----------5--------3-----------5--------
A|--3-----------5--------3-----------5--------3-----------5--------3-----------5--------
E|--------------3--------------------3--------------------3--------1-----------3--------

na na na na
    C           G           C           G     C           G        F        G
E|--0-----------3-----------0-----------3-----0-----------3--------1--------3--------
B|--1-----------3-----------1-----------3-----1-----------3--------1--------3--------
G|--0-----------4-----------0-----------4-----0-----------4--------2--------4--------
D|--2-----------5-----------2-----------5-----2-----------5--------3--------5--------
A|--3-----------5-----------3-----------5-----3-----------5--------3--------5--------
E|--------------3-----------------------3-----------------3--------1--------3--------

give me some sunshine...
    C        G        C        G     C        G                    F           G
E|--0--------3--------0--------3-----0--------3--------------------1-----------3--------
B|--1--------3--------1--------3-----1--------3--------------------1-----------3--------
G|--0--------4--------0--------4-----0--------4--------------------2-----------4--------
D|--2--------5--------2--------5-----2--------5--------------------3-----------5--------
A|--3--------5--------3--------5-----3--------5--------------------3-----------5--------
E|-----------3-----------------3--------------3--------------------1-----------3--------

Guitar Tabs for Give Me Some Sunshine - Chords & Leads - 3 Idiots






E|--0--0--0--------------0--0--0--------------0--0--0--------------------------------
B|-----------1--3--1--3-----------1--3--1--3-----------1--3---1p0-----1--1-----------
G|-----------------------------------------------------------------2--------2---5/7--
D|-----------------------------------------------------------------------------------
A|-----------------------------------------------------------------------------------
E|-----------------------------------------------------------------------------------



E|--3-----3--0--1-----0--1--3-----3--0--1-----3-----3--0--1--3--3--3--8--8--7---8/10-
B|-----------------------------------------------------------------------------------
G|-----------------------------------------------------------------------------------
D|-----------------------------------------------------------------------------------
A|-----------------------------------------------------------------------------------
E|-----------------------------------------------------------------------------------



E|--0--0--0--0--------0--0-----------0--0--0--0-----------------------------------------
B|--------------3-----------1--3-----------------3---1h3--1--1--0-----1--1--------------
G|-----------------------------------------------------------------2--------2---5/7--5--
D|--------------------------------------------------------------------------------------
A|--------------------------------------------------------------------------------------
E|--------------------------------------------------------------------------------------


tabs and chords, guitar tabs, music transcription, music technology, deep learning, music information retrieval, transcribe into tabs & chords, chordify, music renditions, songsterr, reverbnation, tabulature, bollywood chords, ultimate guitar, yousician, guitar lessons, acoustic guitar, electric guitar, guitar tuner, 911 tabs