Guitar Tabs for Kabhi Jo Badal Barse - Leads & Chords

Kabhi Jo Badal Barse Tabs

Check tracks 2 for chords, from tracks button above

e|-----------------------------------------6-----------------------------------------------------------
b|-----3--4--3--4--6--3--------3--4--3--4-----4--3--------3--4--3--4--6--3--------3--------------------
g|--5-----------------------5--------------------------5--------------------3--5-----5-----3-----------
d|--------------------------------------------------------------------------------------------6--5-----
a|-----------------------------------------------------------------------------------------------------
e|-----------------------------------------------------------------------------------------------------

e|-----------------------------------------------------
b|-----4-----4--------3--------------------------------
g|--5-----5-----5--3-----3--5-----5-----5--7-----7--5--
d|-----------------------------6-----6--------8--------
a|-----------------------------------------------------
e|-----------------------------------------------------

e|--------------------------------------------------------------------
b|--------------------------------------------------------------------
g|---3/5--5--7---7h-8p-7p-5\3-----------------------------------------
d|------------------------------5\3--1---1h3--------------------------
a|--------------------------------------------------1-----1--2---2/3--
e|-----------------------------------------------3-----3--------------

e|--------------------------------------------------------------------
b|--------------------------------------------------------------------
g|---3/5--5--7---7h-8p-7p-5\3-----------------------------------------
d|------------------------------5\3--1---3/-5\3-----------------------
a|--------------------------------------------------1-----1--2---2/3--
e|-----------------------------------------------3-----3--------------

e|--------------------------------------------------------------------
b|--------------------------------------------------------------------
g|---3/5--5--7---7h-8p-7p-5\3-----------------------------------------
d|------------------------------5\3--1---1/3--------------------------
a|--------------------------------------------------1-----1--2---2/3--
e|-----------------------------------------------3-----3--------------

e|-----------------------------------------------------------------------------------------------------------------
b|---3/-4\3---------------3/4--3---3/-4\3------------------------------3/-4\3---------------3/4--3---4p3-----------
g|-----------5--3--3--5--------------------5--3--3--5---5p3---3h-5/7-----------5--3--3--5-----------------5--3-----
d|-----------------------------------------------------------------------------------------------------------------
a|-----------------------------------------------------------------------------------------------------------------
e|-----------------------------------------------------------------------------------------------------------------

e|-----------------------3-----------------------------------------3--------------------------
b|-----------------3--6-----4--3-----------------------------3--6-----4--3---------3/-4\3-----
g|------------5p3-----------------5--3---3/5------------5p3-----------------5--3-----------5--
d|---3/-5\3------------------------------------3/-5\3-----------------------------------------
a|--------------------------------------------------------------------------------------------
e|--------------------------------------------------------------------------------------------

e|-----------------------------------------6-----------------------------------------------------------
b|-----3--4--3--4--6--3--------3--4--3--4-----4--3--------3--4--3--4--6--3--------3--------------------
g|--5-----------------------5--------------------------5--------------------3--5-----5-----3-----------
d|--------------------------------------------------------------------------------------------6--5-----
a|-----------------------------------------------------------------------------------------------------
e|-----------------------------------------------------------------------------------------------------

e|--------------------------------------------------------------------------------------
b|--4--3--------3--3--3--4--3-----4--3-----3-----6--4--3--4--4--3--4--3-----4--3-----3--
g|-----------5-----------------5--------5--------------------------------5--------5-----
d|--------------------------------------------------------------------------------------
a|--------------------------------------------------------------------------------------
e|--------------------------------------------------------------------------------------

e|--------------------------------------------------------------------3-----4--3-----------------------------------
b|--------3--4--6--4--4---4p3-----3--------3--4--6--4--4---4p3-----3-----6--------6--4--4---4p3-----3---4p3--------
g|--5--5-----------------------5-----5--5-----------------------5--------------------------------5-----------5--3--
d|-----------------------------------------------------------------------------------------------------------------
a|-----------------------------------------------------------------------------------------------------------------
e|-----------------------------------------------------------------------------------------------------------------

e|-----------------------3-----------------------------------------3-----------------------------
b|-----------------3--6-----4--3-----------------------------3--6-----4--3---------3/-4\3--------
g|------------5p3-----------------5--3---3/5------------5p3-----------------5--3--------------5--
d|---3/-5\3------------------------------------3/-5\3--------------------------------------------
a|-----------------------------------------------------------------------------------------------
e|-----------------------------------------------------------------------------------------------

e|--------------------------------------------------------------------------------------------------------------
b|---3/-4\3---------------3/4--3---3/-4\3------------------------------3/-4\3---------------3/4--3---4p3--------
g|-----------5--3--3--5--------------------5--3--3--5---5p3---3h-5/7-----------5--3--3--5-----------------5--3--
d|--------------------------------------------------------------------------------------------------------------
a|--------------------------------------------------------------------------------------------------------------
e|--------------------------------------------------------------------------------------------------------------

e|--------------------------------------------------------------------------------------------------------------
b|---3/-4\3---------------3/4--3---3/-4\3------------------------------3/-4\3---------------3/4--3---4p3--------
g|-----------5--3--3--5--------------------5--3--3--5---5p3---3h-5/7-----------5--3--3--5-----------------5--3--
d|--------------------------------------------------------------------------------------------------------------
a|--------------------------------------------------------------------------------------------------------------
e|--------------------------------------------------------------------------------------------------------------


Guitar Tabs for Kabhi Jo Badal Barse - Leads & Chords



capo at 3rd fret
          Am          G           F              G           Am          G           Dm          Em 
E|--------0-----------3-----------1--------------3-----------0-----------3-----------1-----------0-----
B|--------1-----------3-----------1--------------3-----------1-----------3-----------3-----------0-----
G|--------2-----------4-----------2--------------4-----------2-----------4-----------2-----------0-----
D|--------2-----------5-----------3--------------5-----------2-----------5-----------0-----------2-----
A|--------0-----------5-----------3--------------5-----------0-----------5-----------------------2-----
E|--------------------3-----------1--------------3-----------------------3-----------------------0-----
    Am             G           F              G
E|--0--------------3-----------1--------------3--------
B|--1--------------3-----------1--------------3--------
G|--2--------------4-----------2--------------4--------
D|--2--------------5-----------3--------------5--------
A|--0--------------5-----------3--------------5--------
E|-----------------3-----------1--------------3--------
    Am          G
E|--0-----------3-----
B|--1-----------3-----
G|--2-----------4-----
D|--2-----------5-----
A|--0-----------5-----
E|--------------3-----
    Am          G
E|--0-----------3--
B|--1-----------3--
G|--2-----------4--
D|--2-----------5--
A|--0-----------5--
E|--------------3--
    Am          G
E|--0-----------3--
B|--1-----------3--
G|--2-----------4--
D|--2-----------5--
A|--0-----------5--
E|--------------3--
    Am                   G                       F           G                 Am          G              Em
E|--0--------------------3-----------------------1-----------3-----------------0-----------3--------------0-----
B|--1--------------------3-----------------------1-----------3-----------------1-----------3--------------0-----
G|--2--------------------4-----------------------2-----------4-----------------2-----------4--------------0-----
D|--2--------------------5-----------------------3-----------5-----------------2-----------5--------------2-----
A|--0--------------------5-----------------------3-----------5-----------------0-----------5--------------2-----
E|-----------------------3-----------------------1-----------3-----------------------------3--------------0-----
    Dm       G           F        G           Dm       G           F        G
E|--1--------3-----------1--------3-----------1--------3-----------1--------3--
B|--3--------3-----------1--------3-----------3--------3-----------1--------3--
G|--2--------4-----------2--------4-----------2--------4-----------2--------4--
D|--0--------5-----------3--------5-----------0--------5-----------3--------5--
A|-----------5-----------3--------5--------------------5-----------3--------5--
E|-----------3-----------1--------3--------------------3-----------1--------3--
          Am          G           F              G           Am          G           Dm          Em
E|--------0-----------3-----------1--------------3-----------0-----------3-----------1-----------0-----
B|--------1-----------3-----------1--------------3-----------1-----------3-----------3-----------0-----
G|--------2-----------4-----------2--------------4-----------2-----------4-----------2-----------0-----
D|--------2-----------5-----------3--------------5-----------2-----------5-----------0-----------2-----
A|--------0-----------5-----------3--------------5-----------0-----------5-----------------------2-----
E|--------------------3-----------1--------------3-----------------------3-----------------------0-----
    Am             G              F     G        Am             G        F        G
E|--0--------------3--------------1-----3--------0--------------3--------1--------3-----
B|--1--------------3--------------1-----3--------1--------------3--------1--------3-----
G|--2--------------4--------------2-----4--------2--------------4--------2--------4-----
D|--2--------------5--------------3-----5--------2--------------5--------3--------5-----
A|--0--------------5--------------3-----5--------0--------------5--------3--------5-----
E|-----------------3--------------1-----3-----------------------3--------1--------3-----
    Am                   G           F                    G           Am                   G
E|--0--------------------3-----------1--------------------3-----------0--------------------3-----------------------
B|--1--------------------3-----------1--------------------3-----------1--------------------3-----------------------
G|--2--------------------4-----------2--------------------4-----------2--------------------4-----------------------
D|--2--------------------5-----------3--------------------5-----------2--------------------5-----------------------
A|--0--------------------5-----------3--------------------5-----------0--------------------5-----------------------
E|-----------------------3-----------1--------------------3--------------------------------3-----------------------
    Dm       G              F           G     Dm       G              F           G
E|--1--------3--------------1-----------3-----1--------3--------------1-----------3--
B|--3--------3--------------1-----------3-----3--------3--------------1-----------3--
G|--2--------4--------------2-----------4-----2--------4--------------2-----------4--
D|--0--------5--------------3-----------5-----0--------5--------------3-----------5--
A|-----------5--------------3-----------5--------------5--------------3-----------5--
E|-----------3--------------1-----------3--------------3--------------1-----------3--
    Am                   G                       F           G                 Am          G              Em
E|--0--------------------3-----------------------1-----------3-----------------0-----------3--------------0-----
B|--1--------------------3-----------------------1-----------3-----------------1-----------3--------------0-----
G|--2--------------------4-----------------------2-----------4-----------------2-----------4--------------0-----
D|--2--------------------5-----------------------3-----------5-----------------2-----------5--------------2-----
A|--0--------------------5-----------------------3-----------5-----------------0-----------5--------------2-----
E|-----------------------3-----------------------1-----------3-----------------------------3--------------0-----
    Am                   G                       F           G                 Am          G              Em
E|--0--------------------3-----------------------1-----------3-----------------0-----------3--------------0-----
B|--1--------------------3-----------------------1-----------3-----------------1-----------3--------------0-----
G|--2--------------------4-----------------------2-----------4-----------------2-----------4--------------0-----
D|--2--------------------5-----------------------3-----------5-----------------2-----------5--------------2-----
A|--0--------------------5-----------------------3-----------5-----------------0-----------5--------------2-----
E|-----------------------3-----------------------1-----------3-----------------------------3--------------0-----







tabs and chords, guitar tabs, music transcription, music technology, deep learning, music information retrieval, transcribe into tabs & chords, chordify, music renditions, songsterr, reverbnation, tabulature, bollywood chords, ultimate guitar, yousician, guitar lessons, acoustic guitar, electric guitar, guitar tuner, 911 tabs