Bass Tabs for Moto Moto

(/) Slide Up  (\) Slide Down  (h) Hammer On  (p) Pull Off  (b) Bend (r) Release (v) Vibrato (x) Muted

Tabs for Song : 
BPM : 200

Song lyrics here
G|-----------------------------------------------------------------------------------------
D|--------------------------------------9--------------------------------------12----10----
A|--10-10-10-10-10-10----10-10-10-12-10----10----10-10-10-10-10-10----10-10-10----10----10-
E|-----------------------------------------------------------------------------------------

G|--------------------------------------------------------------------------
D|--------------------------------------9-----------------------------------
A|--10-10-10-10-10-10----10-10-10-12-10----10----7--7--7--5--5--5--5--5--10-
E|--------------------------------------------------------------------------

G|-----------------------------------------------------------------------------------------
D|-----------------------------------------------------------------------------------------
A|--3--3--3--3-----10-10-10-10----5--5--5--5-----5--5--7--5-----3--3--3--3-----10-10-10-10-
E|-----------------------------------------------------------------------------------------

G|-----------------------------------------------------------------------------------------
D|-----------------------------------------------------------------------------------------
A|--5--5--5--5-----5--5--7--5-----3--3--3--3-----10-10-10-10----5--5--5--5-----5--5--7--5--
E|-----------------------------------------------------------------------------------------

G|--------------------------------------------------------------------------------------------------------
D|-----------------------------------------------------------------------------------------------9--------
A|--3--3--3--3-----10-10-10-10----5--5--5--5-----8--8--8-----10-10-10-10-10-10----10-10-10-12-10----10----
E|--------------------------------------------------------------------------------------------------------

G|-----------------------------------------------------------------------------------------
D|--------------------------------12----10-------------------------------------12----10----
A|--10-10-10-10-10-10----10-10-10----10----10----10-10-10-10-10-10----10-10-10----10----10-
E|-----------------------------------------------------------------------------------------

G|--------------------------------
D|--------------------------------
A|--7--7--7--5--5--5-----5--5--10-
E|--------------------------------

G|--------------------------------------------------------------------------------------------------------------------------
D|--------------------------------------------------------------------------------------------------------------------------
A|--5-----------------------5-----------------------5-----------------------5-----------------------5-----------------------
E|--------------------------------------------------------------------------------------------------------------------------

G|-----------------------------------------------------------------------------------------------------------------
D|-----------------------------------------------------------------------------------------------------------------
A|--------------------------7--5--7--5-----7--5--7--5-----7--5--7--5-----7--5--7--5-----7--5--7--5-----7--5--7--5--
E|-----------------------------------------------------------------------------------------------------------------

Song lyrics here
G|--------------------------------------------------------------------------------------------------------------------------
D|-----------------9--9--9--------7--7--7--------7--7--7-----------------------9--9--9--------7--7--7--------7--7--7--------
A|--10-10-10----------------------------------------------------10-10-10----------------------------------------------------
E|--------------------------------------------------------------------------------------------------------------------------

G|--------------------------------------------------------------
D|--------------------------------------------------------------
A|--3--3--3--3-----10-10-10-10----5--5--5--5-----5--5--7--5-----
E|--------------------------------------------------------------

G|-----------------------------------------------------------
D|-----------------------------------------------------------
A|--3--3--3--3-----10-10-10-10----5--5--5--5-----5--5--7--5--
E|-----------------------------------------------------------

G|--------------------------------------------------------------
D|--------------------------------------------------------------
A|--3--3--3--3-----10-10-10-10----5--5--5--5-----5--5--7--5-----
E|--------------------------------------------------------------

G|-----------------------------------------------------------
D|-----------------------------------------------------------
A|--3--3--3--3-----10-10-10-10----5--5--5--5-----8--8--8--10-
E|-----------------------------------------------------------

G|-----------------------------------------------------------------------------------------
D|-----------------------------------------------------------------------------------------
A|--3--3--3--3-----10-10-10-10----5--5--5--5-----5--5--7--5-----3--3--3--3-----10-10-10-10-
E|-----------------------------------------------------------------------------------------

G|--------------------------------------------------------------------
D|--------------------------------------------------------------------
A|--5--5--5--5-----5--5--5--5-----5--5--5--5-----5--5--5--5--5--5-----
E|--------------------------------------------------------------------

G|--------------------------------------------------------
D|--------------------------------------------------------
A|--3--3--3--3-----3--3--3--3-----3--3--3--3-----10-10-10-
E|--------------------------------------------------------

Paste any tab in acousterr's tab maker and we'll play it !!!
Now supports capo and sound effects for vibrato/pull-off/hammer/bends/mutes etc !!! Checkout help section
tabs and chords, guitar tabs, music transcription, music technology, deep learning, music information retrieval, transcribe into tabs & chords, chordify, music renditions, songsterr, reverbnation, tabulature, bollywood chords, ultimate guitar, yousician, guitar lessons, acoustic guitar, electric guitar, guitar tuner, 911 tabs