Bass Tabs for Mop

(/) Slide Up  (\) Slide Down  (h) Hammer On  (p) Pull Off  (b) Bend (r) Release (v) Vibrato (x) Muted

Tabs for Song : 
BPM : 200

Song lyrics here 
G|--------------------------------------------------------------------------------
D|--------------------------------------------------------------------------------
A|--8--8--8--8--12-12-12-12-11-11-11-10-------8--8--8--8--12-12-12-12-11-11-11-10-
E|--------------------------------------------------------------------------------

G|-----------------------------------------------------------------------------------------------------------------------
D|-----------------------------------------------------------------------------------------------------------------------
A|-----8--8--8--8--12-12-12-12-11-11-11-10----8--8--8--8--12-12-12-12-11-11-11-10----8--8--8--8--12-12-12-12-11-11-11-10-
E|-----------------------------------------------------------------------------------------------------------------------

G|--------------------------------------------------
D|--8--8--8--8--8--8--8--8--10-10-10-10-10-10-10-10-
A|--------------------------------------------------
E|--------------------------------------------------

G|--------------------------------------------------------------------------------------------------------------------------
D|--------------------------------------------------------------------------------------------------------------------------
A|--8--8--8--8--12-12-12-12-11-11-11-10-------8--8--8--8--12-12-12-12-12-11-11-11-10----8--8--8--8--12-12-12-12-11-11-11-10-
E|--------------------------------------------------------------------------------------------------------------------------

G|--------------------------------------------------
D|--8--8--8--8--8--8--8--8--10-10-10-10-10-10-10-10-
A|--------------------------------------------------
E|--------------------------------------------------

G|--------------------------------------------------------------------------------------------------------------------
D|--------------------------------------------------------------------------------------------------------------------
A|--8--8--8--8--12-12-12-12-11-11-11-10----8--8--8--8--12-12-12-12-11-11-11-10----8--8--8--8--12-12-12-12-11-11-11-10-
E|--------------------------------------------------------------------------------------------------------------------

G|--------------------------------------------------
D|--8--8--8--8--8--8--8--8--10-10-10-10-10-10-10-10-
A|--------------------------------------------------
E|--------------------------------------------------

G|--------------------------------------------------------------
D|--------------------------------------------------------------
A|--------------------------------------------------------------
E|--------------------------------------------------------------

G|--------------------------------------------------------------------------------------------------------------------
D|--------------------------------------------------------------------------------------------------------------------
A|--5--5--3--3--3--8--8--7--6--6--6--6-----5--5--3--3--3--8--8--7--6--6--6--6-----5--5--3--3--3--8--8--7--6--6--6--6--
E|--------------------------------------------------------------------------------------------------------------------

G|--------------------------------------------------------------------------------------
D|--------------------------------------------------------------------------------------
A|--5--5--5--5--8--8--8--8--7--7--7--6--------------------------------------------------
E|--------------------------------------------------------------------------------------

G|--------------------------------------------------------------------------------------------------------------------
D|--------------------------------------------------------------------------------------------------------------------
A|--8--8--8--8--12-12-12-12-11-11-11-10----8--8--8--8--12-12-12-12-11-11-11-10----8--8--8--8--12-12-12-12-11-11-11-10-
E|--------------------------------------------------------------------------------------------------------------------

G|--------------------------------------------------
D|--8--8--8--8--8--8--8--8--10-10-10-10-10-10-10-10-
A|--------------------------------------------------
E|--------------------------------------------------

G|--------------------------------------------------------------------------------------------------------------------
D|--------------------------------------------------------------------------------------------------------------------
A|--8--8--8--8--12-12-12-12-11-11-11-10----8--8--8--8--12-12-12-12-11-11-11-10----8--8--8--8--12-12-12-12-11-11-11-10-
E|--------------------------------------------------------------------------------------------------------------------

G|--------------------------------------
D|--------------------------------------
A|--------------------------------------
E|--------------------------------------

G|-----------------------------------------------------------------------------------------------------------------------------------------------
D|-----------------------------------------------------------------------------------------------------------------------------------------------
A|--5--5--5--0--3--3--3--3--3--8--8--7--6--6--6--6--5--5--5--0--3--3--3--3--8--8--7--6--6--6--6-----5--5--5--0--3--3--3--3--8--8--7--6--6--6--6--
E|-----------------------------------------------------------------------------------------------------------------------------------------------

G|--------------------------------------
D|--------------------------------------
A|--5--5--5--5--8--8--8--8--7--7--7--6--
E|--------------------------------------

G|-----------------------------------------------------------------------------------------------------------------------------
D|-----------------------------------------------------------------------------------------------------------------------------
A|-----------8--8--8--8--12-12-12-12-11-11-11-10----8--8--8--8--12-12-12-12-11-11-11-10----8--8--8--8--12-12-12-12-11-11-11-10-
E|-----------------------------------------------------------------------------------------------------------------------------

G|--------------------------------------------------
D|--8--8--8--8--8--8--8--8--10-10-10-10-10-10-10-10-
A|--------------------------------------------------
E|--------------------------------------------------

G|-----------------------------------0
D|-----------------------------------
A|--8--8--8--12-12-12-12-11-11-11-10-
E|-----------------------------------

Song lyrics here 
G|--
D|--
A|--
E|--

Use manual mode to free up cursor. Paste any tab in acousterr tab maker and we'll play it !!!
tabs and chords, guitar tabs, music transcription, music technology, deep learning, music information retrieval, transcribe into tabs & chords, chordify, music renditions, songsterr, reverbnation, tabulature, bollywood chords, ultimate guitar, yousician, guitar lessons, acoustic guitar, electric guitar, guitar tuner, 911 tabs