Guitar Tabs for Mitchirineko March Guitar

Mitchirineko march 
These arent the exact chords, but these are the ones i chose for an acoustic cover 

intro chords
    A           D            A         D
E|-----------------2-----2-----------------2-----2--
B|-----2-----2-----3-----3-----2-----2-----3-----3--
G|-----2-----2-----2-----2-----2-----2-----2-----2--
D|-----2-----2--0--------------2-----2--0-----------
A|--0------------------------0----------------------
E|--------------------------------------------------



(section A.) Chorus chords (x2)
    A           E           F#m7        E/B           D           E             AM7       A7          DM7         E7
E|-----------------------------------------------------2-----2-----------------------------------------2-----2--------------
B|-----2-----2-----0-----0-----2-----2-----0-----0-----3-----3-----0-----0-----2-----2-----2-----2-----2-----2-----0-----0--
G|-----2-----2-----1-----1-----2-----2-----1-----1-----2-----2-----1-----1-----1-----1-----0-----0-----2-----2-----1-----1--
D|-----2-----2-----2-----2-----2-----2-----2-----2--0--------------2-----2-----2-----2-----2-----2--0--------------0-----0--
A|--0-----------------------------------2-----------------------------------0-----------0-----------------------------------
E|--------------0-----------2-----------------------------------0-----------------------------------------------0-----------
play this^ part twice and then play this
    A           A
E|--------------------------
B|-----2-----2-----2-----2--
G|-----2-----2-----2-----2--
D|-----2-----2-----2-----2--
A|--0-----------0-----------
E|--------------------------



(section B.) the other part (prechorus|
    A/C#        A/C         Bm          E           A/C#        A/C         Bm7         E           D           Bm          E           E
E|-----------------------------------------------------------------------------------------------------2-----2--------------------------------------
B|-----2-----2-----2-----2-----3-----3-----0-----0-----2-----2-----5-----5-----3-----3-----0-----0-----3-----3-----3-----3-----0-----0-----0-----0--
G|-----2-----2-----2-----2-----4-----4-----1-----1-----2-----2-----2-----2-----2-----2-----1-----1-----2-----2-----4-----4-----1-----1-----1-----1--
D|-----2-----2-----2-----2-----4-----4-----2-----2-----2-----2-----2-----2-----4-----4-----2-----2--0--------------4-----4-----2-----2-----2-----2--
A|--4-----------3-----------2-----------------------4-----------3-----------2-----------------------------------2-----------------------------------
E|--------------------------------------0-----------------------------------------------0-----------------------------------0-----------0-----------
right before the chorus
    E
E|--0--0--0--0--0-------------
B|--0--0--0--0--0-------------
G|--1--1--1--1--1-------------
D|--2--2--2--2--2-------------
A|--2--2--2--2--2-------------
E|--0--0--0--0--0-------------
everything but the intro repeats throughout the song with some variation around the end,
but these are all the chords.





Guitar Tabs for Mitchirineko March Guitar





E|--
B|--
G|--
D|--
A|--
E|--





E|-----------------------------------------------------2--------------------------------------------------------------------
B|--------------------------------2--3--5-----------------5--3--2--3-----------------------------2--3-----2-----------------
G|-----2--------2-----------2--4--------------2-----------------------4--1--2--------------2--4-----------------4-----1-----
D|--2--------2-----------2--------------------------------------------------------------------------------------------------
A|--------------------------------------------------------------------------------------------------------------------------
E|--------------------------------------------------------------------------------------------------------------------------


E|-----
B|-----
G|--2--
D|-----
A|-----
E|-----




 
E|--0--2--0-----0--2--0-----------------------------0--2--0-----0--2--0--------5--4--2--0-----0-----------------------2-----0--
B|--------------------------5--3--2--3--5-----------------------------------5--------------------2--------------2--------------
G|--------------------------------------------------------------------------------------------------2-----4--------------------
D|-----------------------------------------------------------------------------------------------------------------------------
A|-----------------------------------------------------------------------------------------------------------------------------
E|-----------------------------------------------------------------------------------------------------------------------------

Guitar Tabs for Mitchirineko March Guitar





E|--
B|--
G|--
D|--
A|--
E|--





E|-----------------------------------------------------2--------------------------------------------------------------------
B|--------------------------------2--3--5-----------------5--3--2--3-----------------------------2--3-----2-----------------
G|--2-----------2-----------2--4--------------2-----------------------4--1--2--------------2--4-----------------4-----1-----
D|-----------2-----------2--------------------------------------------------------------------------------------------------
A|--------------------------------------------------------------------------------------------------------------------------
E|--------------------------------------------------------------------------------------------------------------------------


E|-----
B|-----
G|--2--
D|-----
A|-----
E|-----




 
E|--0--2--0-----0--2--0-----------------------------0--2--0-----0--2--0--------5--4--2--0-----0-----------------------2-----0--
B|--------------------------5--3--2--3--5-----------------------------------5--------------------2--------------2--------------
G|--------------------------------------------------------------------------------------------------2-----4--------------------
D|-----------------------------------------------------------------------------------------------------------------------------
A|-----------------------------------------------------------------------------------------------------------------------------
E|-----------------------------------------------------------------------------------------------------------------------------

Guitar Tabs for Mitchirineko March Guitar





E|--------------------------------------------------
B|--------------------------------------------------
G|--------------------------------------------------
D|-----------------------------------------------2--
A|--------------------------------------------------
E|--------------------------------------------------





E|-----------------------------------------------------2--------------------------------------------------------------------
B|--------------------------------2--3--5-----------------5--3--2--3-----------------------------2--3-----2-----------------
G|--2-----------2-----------2--4--------------2-----------------------4--1--2--------------2--4-----------------4-----1-----
D|-----------2-----------2--------------------------------------------------------------------------------------------------
A|--------------------------------------------------------------------------------------------------------------------------
E|--------------------------------------------------------------------------------------------------------------------------


E|-----
B|-----
G|--2--
D|-----
A|-----
E|-----




 
E|--0--2--0-----0--2--0-----------------------------0--2--0-----0--2--0--------5--4--2--0-----0-----------------------2-----0--
B|--------------------------5--3--2--3--5-----------------------------------5--------------------2--------------2--------------
G|--------------------------------------------------------------------------------------------------2-----4--------------------
D|-----------------------------------------------------------------------------------------------------------------------------
A|-----------------------------------------------------------------------------------------------------------------------------
E|-----------------------------------------------------------------------------------------------------------------------------

tabs and chords, guitar tabs, music transcription, music technology, deep learning, music information retrieval, transcribe into tabs & chords, chordify, music renditions, songsterr, reverbnation, tabulature, bollywood chords, ultimate guitar, yousician, guitar lessons, acoustic guitar, electric guitar, guitar tuner, 911 tabs