Guitar Tabs for March Madness 2019

March Madness 2019 Challenge:

E|--------------------------------------------------------------------------------------------------
B|--------------------------------------------------------------------------------------------------
G|--------------------------------------------------------------------------------------------------
D|-----------------7--10-7-----------------5--8--5-----------------3--6--3-----------------1--4--1--
A|-----7--10-7--8--------------5--8--5--6--------------3--6--3--4--------------1--4--1--2-----------
E|--8-----------------------6-----------------------4-----------------------2-----------------------


E|-----------------------------------------------------------------0--
B|-----------------------------------------------------------------1--
G|-----------------------------------------------------------------0--
D|-----6--9--6-----------------4--7--4-----------------2--5--2-----2--
A|--7--------------4--7--4--5--------------2--5--2--3-----------3--3--
E|--------------5-----------------------3-----------------------------

tabs and chords, guitar tabs, music transcription, music technology, deep learning, music information retrieval, transcribe into tabs & chords, chordify, music renditions, songsterr, reverbnation, tabulature, bollywood chords, ultimate guitar, yousician, guitar lessons, acoustic guitar, electric guitar, guitar tuner, 911 tabs