Bass Tabs for Mitchirineko March

MitchiriNeko March - for 5 string bass

this is the bassline that the tuba plays.
i didnt notate any rythym,but if you listen to it a few times you should get it. 

intro
G|-----------------------------------------------------------------------------------------------------------------
D|-----------------------------------------------------------------------------------------------------------------
A|--------------------------------5--7--------------------4--4--3--3--------7--7-----------------------7-----4--7--
E|--5--4-----------------------5--------4--5--4--5--5--7--------------7--7--------7-----5-----5-----7-----7--------
B|--------7--5--3--5--6--7--5--------------------------------------------------------7-----6-----5-----------------

G|----------------------------------------------
D|-----------------------------------------------
A|--5--------6--7--7--7--7--7--------------------
E|-----------------------------------------------
B|-----5--7--------------------5--5--5--5--5-----

chorus 1
G|--------------------------------------------------------------------------
D|--------------------------------------------------------------------------
A|-----------------4-----------------------------------4--5--5--7-----4--5--
E|--5-----4--------------5--------5--------5-----5-----------------7--------
B|-----5-----5--7-----5-----5--3-----5--5-----5-----5-----------------------

G|-----------------------------------------------------------------------------------------
D|-----------------------------------------------------------------------------------------
A|-----------------4-----------------------------------4--5--5--7--7-----------------------
E|--5-----4--------------5--------5--------5-----5--------------------4--5-----5-----5--7--
B|-----5-----5--7-----5-----5--3-----5--5-----5-----5-----------------------5-----5--------

bridge
G|-----------------------------------------------------------------------------------------------
D|-----------------------------------------------------------------------------------------------
A|--4--3-----7-----7--5--4-----------------7-----4--7--5--------6--7--7--7--7--7-----------------
E|--------7-----7-----------------5-----7-----7--------------------------------------------------
B|--------------------------7--5-----3--------------------5--7--------------------5--5--5--5--5--
chorus 2
G|--------------------------------------------------------------------------
D|--------------------------------------------------------------------------
A|-----------------4-----------------------------------4--5--5--7-----4--5--
E|--5-----4--------------5--------5--------5-----5-----------------7--------
B|-----5-----5--7-----5-----5--3-----5--5-----5-----5-----------------------

G|--------------------------------------------------------------------------------------------------
D|--------------------------------------------------------------------------------------------------
A|-----------------4-----------------------------------4--5--5--7--7--4--5--5--7--7--4--------------
E|--5-----4--------------5--------5--------5-----5--------------------------------------------4--5--
B|-----5-----5--7-----5-----5--3-----5--5-----5-----5-----------------------------------3--5--------
outro
G|--------------------------------------------------------------------------------------------------------------------
D|--------------------------------------------------------------------------------------------------------------------
A|--------------------------------5--7-----------------------------------5--7-----------------------------------5--7--
E|--5--4-----------------------5--------4--5--4-----------------------5--------4--5--4-----------------------5--------
B|--------7--5--3--5--6--7--5--------------------7--5--3--5--6--7--5--------------------7--5--3--5--6--7--5-----------

G|--------
D|--------
A|--------
E|--4--5--
B|--------
the song fades out at this point, but you can end it on the A (5)
tabs and chords, guitar tabs, music transcription, music technology, deep learning, music information retrieval, transcribe into tabs & chords, chordify, music renditions, songsterr, reverbnation, tabulature, bollywood chords, ultimate guitar, yousician, guitar lessons, acoustic guitar, electric guitar, guitar tuner, 911 tabs