Guitar Tabs for Mimpi Yang Sempurna

(/) Slide Up  (\) Slide Down  (h) Hammer On  (p) Pull Off  (b) Bend (r) Release (v) Vibrato (x) Muted

Tabs for Song : Mimpi yang sempurna

Intro :
E|-----------------------------------------------------------------------------------------------
B|-----------------------------------------------------------------------------------------------
G|-----------------------------------------------0-----5-----0-----------------------2-----------
D|--0--0--0--0--2--2--2--2--4--4--4--4-----2--4--------5--4--------5--4--0-----2--4-----4--0--2--
A|-----------------------------------------------------3-----------5-----------------------------
E|-----------------------------------------------------------------3-----------------------------

E|-----------------------------------------------
B|-----------------------------------------------
G|-----------------------------------------------
D|--0--0--0--0--2--2--2--4--4--4-----10-10-10-9--
A|-----------------------------------------------
E|-----------------------------------------------


Solo :
E|--------------------------------------------------------------------
B|--------7--8--------------------------------------------------------
G|---7\9--------5--------5-----4-----5--7---------7h9--7--------------
D|--------------------5-----5--------------7--------------9--7---7\9--
A|--------------------------------------------------------------------
E|--------------------------------------------------------------------

E|-----------------------------------------------------------------------------------------------------
B|-----------7--8------8\10-8--10\12----12\15----15-15-15----15-15-15----17-17-17----19-19-19----15-12-
G|--9---7h9--------7-----------------------------------------------------------------------------------
D|-----------------------------------------------------------------------------------------------------
A|-----------------------------------------------------------------------------------------------------
E|-----------------------------------------------------------------------------------------------------

Paste any tab in acousterr's tab maker and we'll play it !!!
Now supports capo and sound effects for vibrato/pull-off/hammer/bends/mutes etc !!! Checkout help section
tabs and chords, guitar tabs, music transcription, music technology, deep learning, music information retrieval, transcribe into tabs & chords, chordify, music renditions, songsterr, reverbnation, tabulature, bollywood chords, ultimate guitar, yousician, guitar lessons, acoustic guitar, electric guitar, guitar tuner, 911 tabs