Guitar Tabs for Perpisahan Yang Kau Pinta

(/) Slide Up  (\) Slide Down  (h) Hammer On  (p) Pull Off  (b) Bend (r) Release (v) Vibrato (x) Muted

Tabs for Song : 
BPM : 200

Instrumental

Intro:

E|-----1--0-----1--0-----1-----------1--0-----1--0-----1-----------1--0-----1--0-----1--------1--0-----
B|-----------------------------------------------------------------------------------------------------
G|--2--------2--------2-----------3--------3--------3-----------3--------3--------3--------2--------3--
D|-----------------------------------------------------------------------------------------------------
A|-----------------------------------------------------------------------------------------------------
E|-----------------------------------------------------------------------------------------------------

Verse 1:

E|-----------------------------------------------------------------------------------
B|--------5--5--6--6--------5---5\6--5--5---3b3--------------5---5p6--5--------------
G|-----7-----------------------------------------5--------7--------------5--5--3--2--
D|--7--------------------------------------------------------------------------------
A|-----------------------------------------------------------------------------------
E|-----------------------------------------------------------------------------------
  
E|-----------------------------------------------------------------------------------------------------
B|-----------------------------------------------------------------------------------------------------
G|--2---3\5--3--3---2\3-----------2---2p3--3--3-----2---3\5--3-----------3--2--2--2--------------------
D|-----------------------------5--------------------------------------5-----------------5---3p5--3--2--
A|-----------------------------------------------------------------------------------------------------
E|-----------------------------------------------------------------------------------------------------

E|-----------------------------------------------------
B|-----------------------------------------------------
G|-----------------------------------------------------
D|-----5---5\7--7--7------7p8--7--------------5---5\7--
A|--8-----------------------------10-------8-----------
E|-----------------------------------------------------

Verse 2:

E|-----------------------------------------------------------------------------
B|-----5--5---6\8--6-----------------------------------5---5p6--5--------------
G|--7-----------------------10-10-9--9--7--5--------7--------------5--5--3--2--
D|-----------------------------------------------------------------------------
A|-----------------------------------------------------------------------------
E|-----------------------------------------------------------------------------

E|-----------------------------------------------------------------------------------------------
B|-----------------------------------------------------------------------------------------------
G|--2--3---3\5--3--3---2\3-----------2---2p3--3--3--2---3\5--3-----------------------------------
D|--------------------------------5-----------------------------------5--7---7\8--7--7--5--3-----
A|--------------------------------------------------------------------------------------------7--
E|-----------------------------------------------------------------------------------------------

E|--------------------------------------------------------
B|--------------------------------------------------------
G|--------------------------------------------------------
D|-----5---5\7--7--7-----8---7p8--7-----------------------
A|--8--------------------------------10----8--10-10\12----
E|--------------------------------------------------------

Chorus:

E|-----------------------------------------
B|-----------------------------------------
G|---------5\7--5--------------------------
D|-----7-----------8--7---7\8------8\10-8--
A|-----------------------------------------
E|-----------------------------------------

E|--------------------------------------------------------------------------------------
B|--------------------------------------------------------------------------------------
G|---------------5\7--5---3\5---5\7--5--------------------------------------------------
D|--10\12-10-5--------------------------------7--8---8\10----8--8-----7---7p8--7--------
A|--------------------------------------------------------------------------------8-----
E|--------------------------------------------------------------------------------------

E|-----------------------------------------------------------------
B|-----------------------------------------------------------------
G|-----------------------------------------------------------------
D|-----5--7--7---7\8--7-----8--7--7--8--7--5--3--5---5\7---7\8--7--
A|-----------------------------------------------------------------
E|-----------------------------------------------------------------

Chorus 2:

E|--------------------------------------------------------------------------------
B|-----------------------------------------------------------------------5---5\6--
G|---------5\7--5-----------------------------------------------------------------
D|-----7-----------8--7---7\8------8\10-8--------12-10-7-----7---7\8--7-----------
A|--------------------------------------------------------------------------------
E|--------------------------------------------------------------------------------

E|-----------------------------------------------------------------------------------------
B|--5---5\6------5h6--5-----5---5\6-----------5--6---5\6--5--6------------6\8--6--6--------
G|-----------------------7-----------------7--------------------------7--------------------
D|-----------------------------------------------------------------------------------------
A|-----------------------------------------------------------------------------------------
E|-----------------------------------------------------------------------------------------

E|-----------------------------
B|---5\6---5p6--5--------------
G|-----------------7---7\9--9--
D|-----------------------------
A|-----------------------------
E|-----------------------------

Verse 3:

E|-----------------------------------------------------------------------------------
B|--------5--5--6--6---------5\6--5--5--3---3b3--------------5---5p6--5--------------
G|-----7-----------------------------------------5--------7--------------5--5--3--2--
D|--7--------------------------------------------------------------------------------
A|-----------------------------------------------------------------------------------
E|-----------------------------------------------------------------------------------

E|-----------------------------------------------------------------------------------------------
B|-----------------------------------------------------------------------------------------------
G|--2--3---3\5--3--3---2\3-----------2---2p3--3--3--2---3\5--3-----------------------------------
D|--------------------------------5-----------------------------------5--7---7\8--7--7--5--3-----
A|--------------------------------------------------------------------------------------------7--
E|-----------------------------------------------------------------------------------------------

E|--------------------------------------------------------
B|--------------------------------------------------------
G|--------------------------------------------------------
D|-----5---5\7--7--7-----8---7p8--7-----------------------
A|--8--------------------------------10----8--10-10\12----
E|--------------------------------------------------------

Solo :

E|-----12-12-13----------12h13-12----------------------13h12-13-------------
B|--------------15----------------13-13-------------------------13-13-11-10-
G|--14----------------------------------12\14-12----------------------------
D|--------------------------------------------------------------------------
A|--------------------------------------------------------------------------
E|--------------------------------------------------------------------------

E|-----------------------------------------------------------------------------
B|--10\11----11\13-11----11h10-11\13-11-------------10-10h11----11h10-11\13-11-
G|---------------------------------------------9\12----------------------------
D|-----------------------------------------------------------------------------
A|-----------------------------------------------------------------------------
E|-----------------------------------------------------------------------------

E|--------------------------------------
B|--11-10----10b10-------8-----8--10b10-
G|--------12----------------10----------
D|--------------------------------------
A|--------------------------------------
E|--------------------------------------

Last verse:

E|-----------------------
B|--5--6--5------6h5-----
G|--------------------7--
D|-----------------------
A|-----------------------
E|-----------------------

Use manual mode to free up cursor. Paste any tab in acousterr tab maker and we'll play it !!!
tabs and chords, guitar tabs, music transcription, music technology, deep learning, music information retrieval, transcribe into tabs & chords, chordify, music renditions, songsterr, reverbnation, tabulature, bollywood chords, ultimate guitar, yousician, guitar lessons, acoustic guitar, electric guitar, guitar tuner, 911 tabs