Guitar Tabs for Meri Pehli Mohobbat | Darshan Raval | Guitar Tab Sheets By Musical G

(/) Slide Up  (\) Slide Down  (h) Hammer On  (p) Pull Off  (b) Bend (r) Release (v) Vibrato (x) Muted

Tabs for Song : Meri Pehli Mohobbat
BPM : 200

Na re na na narh na..na na nana nare nah nah....
E|-----1--------------------------------1-----------------------------------------------------------------------
B|--3------------3h4-----1--------1---------------3h4-----1---------3/1-----------------------------------------
G|-----------------------------------------------------------------------3--------3-----2-----2-----3-----------
D|--------------------------------------------------------------------------------------------------------------
A|--------------------------------------------------------------------------------------------------------------
E|--------------------------------------------------------------------------------------------------------------
Mera din bhi tu meri shaame tu .. Mere raat ke sapno mein tu
E|--------------------------------------------------------------------------------------------------------
B|--------1-----------------------1--------------------------1--1-----------------------------------------
G|--3--2--------3--3--------3--2--------3--3-----3--2--2-----------------3--2--2--------------------------
D|-----------------------------------------------------------------------------------5--5-----------------
A|--------------------------------------------------------------------------------------------------------
E|--------------------------------------------------------------------------------------------------------
Meri aahatein tera naam le..Ye baat tu jaan le
E|--------------------------------------------------------------------------------------------------
B|--------1-----------------------1--------------------------1--1-----------------------------------
G|--3--2--------3--3--------3--2--------3--3-----3--2--2-----------------3-----3--3-----------------
D|--------------------------------------------------------------------------------------------------
A|--------------------------------------------------------------------------------------------------
E|--------------------------------------------------------------------------------------------------
Sau saal ka mera ek din ho jisme..Teri tasweer na ho
E|--1-----------------------------1-----------------------1-----------------------------------------------
B|--------4-----3-----------1--------4--3-----------1--------4--3--3--3---3/4--3---------1h3--------------
G|-----------------3-----3-----------------3-----3-----------------------------------3--------------------
D|--------------------------------------------------------------------------------------------------------
A|--------------------------------------------------------------------------------------------------------
E|--------------------------------------------------------------------------------------------------------
Berut se hai meri yeh zindagi jisme.. Teri khushboo na ho
E|--1-----------------------------1-----------------------1-----------------------------------------
B|--------4-----3-----------1--------4--3-----------1---------4\3--3--3------4\6--6--6--------------
G|-----------------3-----3-----------------3-----3--------------------------------------------------
D|--------------------------------------------------------------------------------------------------
A|--------------------------------------------------------------------------------------------------
E|--------------------------------------------------------------------------------------------------
Meri!! Pehli Mohobbat.. Pehli Mohobbat..Pehli Mohobbat Hai Woh...
E|-----1--------1-----------------------1--------------------------------------------------------------------------
B|-----------------4--3-----1--------------4--3-----1--------------------------1------1\3------4\3--1--------------
G|--3--------3-----------3-----------3-----------3-----------3--3--0--3--3-----------------------------------------
D|-----------------------------------------------------------------------------------------------------------------
A|-----------------------------------------------------------------------------------------------------------------
E|-----------------------------------------------------------------------------------------------------------------
E|--------------------------------------------------------------------------------------------------
Meri!! Pehli Mohobbat.. Pehli Mohobbat..Pehli Mohobbat Hai Woh...
E|-----1--------1-----------------------1--1--3--1-----------------------------------------------------
B|-----------------4--3-----1-----------------------4--3-----------------------3------3\6--------------
G|--3--------3-----------3-----------3-----------------------3--3--0--3--3-----------------------------
D|-----------------------------------------------------------------------------------------------------
A|-----------------------------------------------------------------------------------------------------
E|-----------------------------------------------------------------------------------------------------
O meri jaan, Tum ho kaha.. Dhoondhe tujhe mera dil..
E|--------------------1--------------------------1-----------------------------------------------------------
B|--------1--------------------------1-----------------------1-----3---1\3-----3---3\4-----1-----------------
G|--3-----------3--3-----------3-----------3--3--------3--------------------------------------3--------------
D|-----------------------------------------------------------------------------------------------------------
A|-----------------------------------------------------------------------------------------------------------
E|-----------------------------------------------------------------------------------------------------------
Dasturiya..Tum ho meri..Jo main kahu sun lo na tum...
E|--------------------------1-----------------------1-----1------1\3-----1--1-----------------------------------
B|-----------1--------------------------1-----------------------------------------3--3--4------4\6--------------
G|--3--3-----------3-----3--------3-----------3--3--------------------------------------------------------------
D|--------------------------------------------------------------------------------------------------------------
A|--------------------------------------------------------------------------------------------------------------
E|--------------------------------------------------------------------------------------------------------------
Tumhe baar baar keh du.. Ye hazaar baar keh du...Kehta main jaau tumko....
E|--------------------------------------------------------1-----------------------1--1--1--3--1-----------------------
B|-----------1--1---1\3--3-----3--1--1-----------1--1-----------4-----3--3--3--------------------4--3------3\-4\6-----
G|--3--3-----------------------------------3--3-----------------------------------------------------------------------
D|--------------------------------------------------------------------------------------------------------------------
A|--------------------------------------------------------------------------------------------------------------------
E|--------------------------------------------------------------------------------------------------------------------
Meri!! Pehli Mohobbat.. Pehli Mohobbat..Pehli Mohobbat Hai Woh...
E|--------1--------1-----------------------1--------------------------------------1-----------------
B|--------------------4--3-----1--3-----------4--3--1--3--------------------3--3--------------------
G|-----3--------3-----------------------3--------------------3--3--0--3--3--------------------------
D|--------------------------------------------------------------------------------------------------
A|--------------------------------------------------------------------------------------------------
E|--------------------------------------------------------------------------------------------------
Meri!! Pehli Mohobbat.. Pehli Mohobbat..Pehli Mohobbat Hai Woh...
E|-----1--------1-----------------------1--1--3--1-----------------------------------------1-----------------
B|-----------------4--3-----1--3--------------------4-----3-----------------------3-----3--------------------
G|--3--------3-----------------------3--------------------------3--3--0--3--3--------------------------------
D|-----------------------------------------------------------------------------------------------------------
A|-----------------------------------------------------------------------------------------------------------
E|-----------------------------------------------------------------------------------------------------------
Na re na na narh na..na na nana nare nah nah....
E|-----1-----------------------1--------------------------------------------------------
B|--3-----------3-----1--1--------------3--1---3\1--------------------------------------
G|--------------------------------------------------3--------3--2--2-----3--------------
D|--------------------------------------------------------------------------------------
A|--------------------------------------------------------------------------------------
E|--------------------------------------------------------------------------------------
Na re na na narh na..na na nana nare nah nah....
E|-----1--------------------1-----------------------------------------------------1-----------
B|--3--------3-----1--1--------------3--1---3\1-----------------------1--3-----3--------------
G|-----------------------------------------------3--------3--2-----3--------------------------
D|--------------------------------------------------------------------------------------------
A|--------------------------------------------------------------------------------------------
E|--------------------------------------------------------------------------------------------


Use manual mode to free up cursor. Paste any tab in acousterr tab maker and we'll play it !!!
tabs and chords, guitar tabs, music transcription, music technology, deep learning, music information retrieval, transcribe into tabs & chords, chordify, music renditions, songsterr, reverbnation, tabulature, bollywood chords, ultimate guitar, yousician, guitar lessons, acoustic guitar, electric guitar, guitar tuner, 911 tabs