Guitar Tabs for Bhula Diya Darshan Raval - Created By Musical G

(/) Slide Up  (\) Slide Down  (h) Hammer On  (p) Pull Off  (b) Bend (r) Release (v) Vibrato (x) Muted

Tabs for Song : Bhula Diya - Darshan Raval New Latest Bollywood Song
BPM : 200

Song lyrics here 
E|-----------------------------------------------------
B|-----------------------------------------------------
G|--2--4--5-----5--------------4---4\2--4---2\4--------
D|--------------------2-----2--------------------------
A|-----------------------------------------------------
E|-----------------------------------------------------

Song lyrics here 
E|-----------------------------------------------
B|-----------------------------------------------
G|--0--2-----0--2-----2---------0h2--------------
D|--------------------------3--------3--2--------
A|-----------------------------------------------
E|-----------------------------------------------

E|----------------------------------------------------------
B|-----------------------------------------------------------
G|---2/4--5-----5--------------4---4\2-----4---2\4-----------
D|-----------------2--2-----2--------------------------------
A|-----------------------------------------------------------
E|-----------------------------------------------------------

E|--------------------------------------------
B|--------------------------------------------
G|--0---2\0--0--2-----2---------0h2-----------
D|--------------------------3--------3--2-----
A|--------------------------------------------
E|--------------------------------------------

E|-----------------------------------------------------------------
B|---------1\3--3--3-----3--5------3\1-----1-----1---0\1-----------
G|---2\4-----------------------------------------------------2--4--
D|-----------------------------------------------------------------
A|-----------------------------------------------------------------
E|-----------------------------------------------------------------

E|-----------------------------------------------------------
B|--1---1\6--5---3\1-----1---------------------3\1--0--------
G|------------------------------4\2-----4--------------------
D|-----------------------------------------------------------
A|-----------------------------------------------------------
E|-----------------------------------------------------------

E|-----------------------------------------------------
B|--------1--3--3--3------3\5------3/1--1--0--1--------
G|--2--4-----------------------------------------2-----
D|-----------------------------------------------------
A|-----------------------------------------------------
E|-----------------------------------------------------

E|--------------------------------------------------------------
B|-----------1--6---6\5---3\1--1-----1---3h5--1--0--------------
G|--2--4--------------------------------------------------------
D|--------------------------------------------------------------
A|--------------------------------------------------------------
E|--------------------------------------------------------------

E|-----------------------------------------------------------------------------------------------
B|--5--5--3--5-----3---3\5-----3--5--5--3-----1--------------------5-----5--3---3\5-----5--3-----
G|--------------------------------------------------4---4\2-----2--------------------------------
D|-----------------------------------------------------------------------------------------------
A|-----------------------------------------------------------------------------------------------
E|-----------------------------------------------------------------------------------------------

E|--------------------------------------------------------------------
B|--1--5-----3--3--3-----3---3h5--3--------------3-----1--1-----------
G|------------------------------------5\2-----2-----------------------
D|--------------------------------------------------------------------
A|--------------------------------------------------------------------
E|--------------------------------------------------------------------

E|--------------------------------------------------------------------------------------------
B|--5--5--3--5-----3---3\5-----3--5--5--3-----1-----------------5-----5--3---3\5-----5--3-----
G|--------------------------------------------------4---4\2--2--------------------------------
D|--------------------------------------------------------------------------------------------
A|--------------------------------------------------------------------------------------------
E|--------------------------------------------------------------------------------------------

E|-----------------------------------------------------------------
B|--1--5-----3--3--3-----3---3h5--3--------------3-----1--1--------
G|------------------------------------5\2-----2--------------------
D|-----------------------------------------------------------------
A|-----------------------------------------------------------------
E|-----------------------------------------------------------------

E|-----------------------------------------------------------------------------------
B|--1--------1-----1---0h1------------------------3\1--0-----0--1------1\3--1--------
G|--------------------------0--2-----2-----4-----------------------------------------
D|-----------------------------------------------------------------------------------
A|-----------------------------------------------------------------------------------
E|-----------------------------------------------------------------------------------

E|-----------------------------------------------------------------
B|--1--3--5------5\6-----5---3\1-----1-----1-----3---1\3-----------
G|-----------------------------------------------------------------
D|-----------------------------------------------------------------
A|-----------------------------------------------------------------
E|-----------------------------------------------------------------

E|--------------------------------------------------------------------------------
B|--1-----1---0h1--------------------------------1------1\3-----1-----1--3--5-----
G|-----------------0--2-----2--4--5--4-----4--4-----------------------------------
D|--------------------------------------------------------------------------------
A|--------------------------------------------------------------------------------
E|--------------------------------------------------------------------------------

E|-----------------------------------------------------
B|---5\6-----5---3\1-----1-----1------5\3--3-----------
G|-----------------------------------------------------
D|-----------------------------------------------------
A|-----------------------------------------------------
E|-----------------------------------------------------

E|--------------------------------------------------------------
B|---------1\3-----3--3-----3-----5--3--1--1------0\1-----------
G|---2\4--------------------------------------------------2--4--
D|--------------------------------------------------------------
A|--------------------------------------------------------------
E|--------------------------------------------------------------

E|-----------------------------------------------------------
B|--1--6---6\5------3\1-----1------------------3\1--0--------
G|---------------------------------4\2--4--------------------
D|-----------------------------------------------------------
A|-----------------------------------------------------------
E|-----------------------------------------------------------

E|-----------------------------------------------------------
B|---------1\3-----3--3--3---3\5------3\1-----1--1---0\1-----
G|---2\4-----------------------------------------------------
D|-----------------------------------------------------------
A|-----------------------------------------------------------
E|-----------------------------------------------------------

E|--------------------------------------------------------------------
B|------------1\6---6\5------3\1--1-----1---3h5--1--0-----------------
G|--2--4--------------------------------------------------------------
D|--------------------------------------------------------------------
A|--------------------------------------------------------------------
E|--------------------------------------------------------------------

E|--3--3--1--3-----1---1\3-----1--3--3--1-----------------------3-----
B|--------------------------------------------4--3---3\1-----1--------
G|--------------------------------------------------------------------
D|--------------------------------------------------------------------
A|--------------------------------------------------------------------
E|--------------------------------------------------------------------

E|--3--1---1\3-----3--1--------3-----1--1--1-----1---1h3--1--------------------1-----------------
B|--------------------------4------------------------------------4\1--------1--------4--4--------
G|-----------------------------------------------------------------------------------------------
D|-----------------------------------------------------------------------------------------------
A|-----------------------------------------------------------------------------------------------
E|-----------------------------------------------------------------------------------------------

E|--3--3--1--3-----1---1\3-----1--3--3--1-----------------------3-----3--1---1\3--3--1--------
B|--------------------------------------------4--3---3\1--1-----------------------------------
G|--------------------------------------------------------------------------------------------
D|--------------------------------------------------------------------------------------------
A|--------------------------------------------------------------------------------------------
E|--------------------------------------------------------------------------------------------

E|-----3--1--1--1-----1---1h3--1--------------1---------------3\1---3\4-----------------
B|--4------------------------------4\1-----1--------4--4--------------------4-----------
G|--------------------------------------------------------------------------------------
D|--------------------------------------------------------------------------------------
A|--------------------------------------------------------------------------------------
E|--------------------------------------------------------------------------------------

Use manual mode to free up cursor. Paste any tab in acousterr tab maker and we'll play it !!!
tabs and chords, guitar tabs, music transcription, music technology, deep learning, music information retrieval, transcribe into tabs & chords, chordify, music renditions, songsterr, reverbnation, tabulature, bollywood chords, ultimate guitar, yousician, guitar lessons, acoustic guitar, electric guitar, guitar tuner, 911 tabs