Guitar Tabs for Mere mehboob

Tabs for Song : Mere Mehboob

mere mehboob
E|-----------------------
B|-----------3--1--3-----
G|--0--2--3--------------
D|-----------------------
A|-----------------------
E|-----------------------

qayamat hogi
E|-----------------------------------
B|--1--------------------------------
G|-----3--2--0--------0--0-----2-----
D|--------------3-----------3--------
A|-----------------------------------
E|-----------------------------------

aaj rusava
E|--------------------
B|--------------------
G|--0--2--3--2--0-----
D|--------------------
A|--------------------
E|--------------------

teri galiyon mein mohabbat hogi
E|--------------------------------------------
B|--------------------------------------------
G|--0--2--2--0-----------------0-----2--0-----
D|--------------3--1--3--1--0-----3-----------
A|--------------------------------------------
E|--------------------------------------------

meri nazarein
E|-----------------------
B|-----------3--1--3-----
G|--0--2--3--------------
D|-----------------------
A|-----------------------
E|-----------------------

to gila karti hai
E|-----------------------------------
B|--1--------------------------------
G|-----3--2--0--------0--0-----2-----
D|--------------3-----------3--------
A|-----------------------------------
E|-----------------------------------

tere dil ko
E|--------------------
B|--------------------
G|--0--2--3--2--0-----
D|--------------------
A|--------------------

bhi sanam tujh se shikayat hogi
E|--------------------------------------------
B|--------------------------------------------
G|--0--2--2--0-----------------0-----2--0-----
D|--------------3--1--3--1--0-----3-----------
A|--------------------------------------------
E|--------------------------------------------

mere mehboob
E|-----------------------
B|-----------3--1--3-----
G|--0--2--3--------------
D|-----------------------
A|-----------------------
E|-----------------------

teri gali mein aata sanam
E|-----------------------------------------
B|--------1--------------------------------
G|--3--3--------3--3-----2--0--2--0--0-----
D|-----------------------------------------
A|-----------------------------------------
E|-----------------------------------------

nagma wafa ka gaata sanam
E|--------------------------------------------
B|-----------1--------------------------------
G|--3--3--2--------3--3-----2--0--2--0--0-----
D|--------------------------------------------
A|--------------------------------------------
E|--------------------------------------------

tujhse suna na jata sanam
E|-----------------------------------------
B|--1--1-----1-----------------------------
G|--------3-----3--3-----2--0--2--0--0-----
D|-----------------------------------------
A|-----------------------------------------
E|-----------------------------------------

fir aaj idhar 
E|-----------1-----------------
B|--3--3--3--------4--3--1-----
G|-----------------------------
D|-----------------------------
A|-----------------------------
E|-----------------------------

aya hoon magar
E|--------------------------
B|--1--1---3/4--3--1--------
G|--------------------3-----
D|--------------------------
A|--------------------------
E|--------------------------

ye kahne mein deewana
E|-----------------------------------------
B|--------3--1--3--1--------1--------------
G|--3--3--------------3--2-----3--2--0-----
D|-----------------------------------------
A|-----------------------------------------
E|-----------------------------------------

khatma bas aaj
E|-----------------------
B|-----------3--1--3-----
G|--0--2--3--------------
D|-----------------------
A|-----------------------
E|-----------------------

ye wahshat hogi
E|--------------------------------------
B|--1-----------------------------------
G|-----3--2--0--------0--0--------2-----
D|--------------3-----------3-----------
A|--------------------------------------
E|--------------------------------------

aaj rusava
E|--------------------
B|--------------------
G|--0--2--3--2--0-----
D|--------------------
A|--------------------
E|--------------------

teri galiyon mein mohabbat hogi
E|-----------------------------------------
B|-----------------------------------------
G|--0--2--2--0--------------0-----2--0-----
D|--------------3--1--3--1-----3-----------
A|-----------------------------------------
E|-----------------------------------------


tabs and chords, guitar tabs, music transcription, music technology, deep learning, music information retrieval, transcribe into tabs & chords, chordify, music renditions, songsterr, reverbnation, tabulature, bollywood chords, ultimate guitar, yousician, guitar lessons, acoustic guitar, electric guitar, guitar tuner, 911 tabs