Guitar Tabs for Mere Hath Mein - Fanaa Tabs

(/) Slide Up  (\) Slide Down  (h) Hammer On  (p) Pull Off  (b) Bend (r) Release (v) Vibrato

Tabs for Song : Mere Hath Mein

Mere haath mein tera haath ho 
E|--------------------------------------
B|--------------------------------------
G|-----0--0--1-----------0--0--1--------
D|--------------3-----------------3-----
A|--3-----------------3-----------------
E|--------------------------------------

saari jannatein mere saath ho
E|--------------------------------------
B|--------------------------------------
G|-----------0--------------------------
D|-----3--3-----1-----------1-----------
A|--3-----------------4--4-----4--3-----
E|--------------------------------------

tu jo paas ho phir kya yeh jahaan
E|-----------------------------------------
B|-----1--1--3-----------1--1--4--3--------
G|--0-----------3-----0--------------3-----
D|-----------------------------------------
A|-----------------------------------------
E|-----------------------------------------

tere pyar mein ho jaaun fanaa
E|-----------------------------------------
B|-----------1-----------------1-----------
G|--0--3--3-----2-----1--1--1-----1--0-----
D|-----------------------------------------
A|-----------------------------------------
E|-----------------------------------------

jitne paas hain khushbu saans ke
E|-----------------------------------------
B|--1--1--------------1--1-----------------
G|--------3--2--0-----------3--2--2--0-----
D|-----------------------------------------
A|-----------------------------------------
E|-----------------------------------------

jitne paas hothon ke sargam
E|-----------------------------------
B|--------------------4--3--4--1-----
G|--0--3--3--2--0--------------------
D|-----------------------------------
A|-----------------------------------
E|-----------------------------------

jaise saath hain karvat yaad ke
E|-----------------------------------------
B|--1--1--------------1--1-----------------
G|--------3--2--0-----------3--2--2--0-----
D|-----------------------------------------
A|-----------------------------------------
E|-----------------------------------------

jaise saath baahon ke sangam
E|--------------------------------------
B|--------------------------------------
G|--0--3--3--2--0-----------------------
D|--------------------3--1--1-----------
A|-----------------------------4--3-----
E|--------------------------------------

jitne paas paas khwaabon ke nazar
E|-----------------------------------------
B|-----------------------------------------
G|-----0--0--1-----------0--0--3--1--------
D|--------------3--------------------3-----
A|--3-----------------3--------------------
E|-----------------------------------------

utni paas tu rehna hamsafar
E|--------------------------------------
B|--------------------------------------
G|-----------0--------------------------
D|-----3--3-----1--------3--1-----------
A|--3--------------4--4--------4--3-----
E|--------------------------------------

tu jo paas ho phir kya yeh jahaan
E|-----------------------------------------
B|-----1--1--3-----------1--1--4--3--------
G|--0-----------3-----0--------------3-----
D|-----------------------------------------
A|-----------------------------------------
E|-----------------------------------------

tere pyar mein ho jaun fanaa
E|--------------------------------------------
B|-----------1--------------1-----------------
G|--0--3--3-----2--1--1--1--------3--1--0-----
D|--------------------------------------------
A|--------------------------------------------
E|--------------------------------------------



tabs and chords, guitar tabs, music contests, music covers, songsterr, reverbnation, renditions, tabulature, bollywood chords, ultimate guitar, yousician, guitar lessons, torrins, fender, gibson, acoustic guitar, electric guitar, youtube covers, gootar, guitar tuner, A-Z tabs, 911 tabs