Guitar Tabs for Mere Haath Mein - Fanaa Tabs

(/) Slide Up  (\) Slide Down  (h) Hammer On  (p) Pull Off  (b) Bend (r) Release (v) Vibrato

Tabs for Song : Mere Haath Mein 

Intro
E|-----------------------------------
B|-----8--8--9--8--6-----8--9--8--6--
G|--5-----------------5--------------
D|-----------------------------------
A|-----------------------------------
E|-----------------------------------

Intro
E|--------------------------------------
B|-----6--6--8--6-----------6-----------
G|--5--------------8--8--6-----8--6--5--
D|--------------------------------------
A|--------------------------------------
E|--------------------------------------

Mere haath mein tera haath ho
E|--------------------------------------
B|-----8--8--9--8--6-----8--8--9--8--6--
G|--5-----------------5-----------------
D|--------------------------------------
A|--------------------------------------
E|--------------------------------------

Saari jannatein mere saath ho
E|-----------------------------------------
B|-----6--6--8--6--------------6-----------
G|--5--------------8--8--8--6-----8--6--5--
D|-----------------------------------------
A|-----------------------------------------
E|-----------------------------------------

Mere haath mein tera haath ho
E|-----------------------------6--------
B|-----8--8--9--8--6-----8--8-----9--6--
G|--5-----------------5-----------------
D|--------------------------------------
A|--------------------------------------
E|--------------------------------------

Saari jannatein mere saath ho
E|-----------------------------------------
B|-----6--6--8--6--------------6-----------
G|--5--------------8--8--8--6-----8--6--5--
D|-----------------------------------------
A|-----------------------------------------
E|-----------------------------------------

Tu jo paas ho phir kya yeh jahaan
E|-----8--8--10-8--------8---8/11-10----
B|--8--------------11-8--------------11-
G|--------------------------------------
D|--------------------------------------
A|--------------------------------------
E|--------------------------------------

Tere pyar mein ho jaaun fanaa
E|-----------8-----------8-----------
B|--8--11-11----9--9--9-----11-9--8--
G|-----------------------------------
D|-----------------------------------
A|-----------------------------------
E|-----------------------------------

Again Repeat Mere Haath Mein Tera Haath Ho...
tabs and chords, guitar tabs, music contests, music covers, songsterr, reverbnation, renditions, tabulature, bollywood chords, ultimate guitar, yousician, guitar lessons, torrins, fender, gibson, acoustic guitar, electric guitar, youtube covers, gootar, guitar tuner, A-Z tabs, 911 tabs