Guitar Tabs for Mere Samne Wali Khidki Mein - Padosan Tabs

(/) Slide Up  (\) Slide Down  (h) Hammer On  (p) Pull Off  (b) Bend (r) Release (v) Vibrato (x) Muted

Tabs for Song : Mere Saamne Wali Khidki Mein

Mere Saamne Waali Khidki Mein Ek Chaand Ka Tukda Rehta Hai
E|--------------------------------------------------------------------
B|--8--10-10/12-8--8--8--------10-10-8--10-10/12-8--8--8--7--5--8--8--
G|-----------------------11-9-----------------------------------------
D|--------------------------------------------------------------------
A|--------------------------------------------------------------------
E|--------------------------------------------------------------------

Mere Saamne Waali Khidki Mein Ek Chaand Ka Tukda Rehta Hai
E|--------------------------------------------------------------------
B|--8--10-10/12-8--8--8--------10-10-8--10-10/12-8--8--8--7--5--8--8--
G|-----------------------11-9-----------------------------------------
D|--------------------------------------------------------------------
A|--------------------------------------------------------------------
E|--------------------------------------------------------------------

Afsos Ye Hai Ke Vo Hamse Kuchh Ukhda Ukhda Rehta Hai
E|--------7--5--7-----8--8--7--8-----------------------------------------
B|--------------------------------------------7--8--10-10/12-8--8--8--8--
G|--7--7-----------7--------------9--9--9--9-----------------------------
D|-----------------------------------------------------------------------
A|-----------------------------------------------------------------------
E|-----------------------------------------------------------------------

Mere Saamne Waali Khidki Mein Ek Chaand Ka Tukda Rehta Hai
E|--------------------------------------------------------------------
B|--8--10-10/12-8--8--8--------10-10-8--10-10/12-8--8--8--7--5--8--8--
G|-----------------------11-9-----------------------------------------
D|--------------------------------------------------------------------
A|--------------------------------------------------------------------
E|--------------------------------------------------------------------
tabs and chords, guitar tabs, music contests, music covers, songsterr, reverbnation, renditions, tabulature, bollywood chords, ultimate guitar, yousician, guitar lessons, torrins, fender, gibson, acoustic guitar, electric guitar, youtube covers, gootar, guitar tuner, A-Z tabs, 911 tabs