Mechanical Soul - Bass Tabs

(/) Slide Up  (\) Slide Down  (h) Hammer On  (p) Pull Off  (b) Bend (r) Release (v) Vibrato (x) Muted

Mechanical Soul 
Intro: no bass 

CECI
Don't smile, don't smile too much
Don't accept, don't react
Don't smile, don't smile too much
Don't accept, don't be yourself
They're gonna fire you...

TOGETHER
Anyway!

Smashy A chord before chorus
 x 8 first time
G|--------------
D|--------------
A|--0--0--0--0--
E|--------------

CHORUS
TOGETHER
When I walk through that door, people lie to everyone
They sold their souls long time ago, they don't have a heart, they don't need one because...
G|-----------------------------------------
D|-----------------------------------------
A|--0--0--3--0--0--3--0--0--3--0--0--3--5--
E|-----------------------------------------
I don't wanna hear it, I don't wanna hear it 

G|--------------------------
D|--------------------------
A|--5--5--5--5--6--6--6--6--
E|--------------------------

When I'm here, I'm not myself, I need to keep my mind way
Can you cut the bullshit please, can you cut the bullshit please because...
I don't wanna hate you, I don't wanna hate you!

Verse 2 (no bass)

CECI 
Don't deny, don't speak your mind
Don't accept, they will deny!
But the only way, to survive,
is to smile in a

TOGETHER
mechanical mode! 

G|--------------
D|--------------
A|--0--0--0--0--
E|--------------
x 4 this time

CHORUS 
Breakdown: deal, deal, deal with it x 8
G|---------------------------
D|--------------------------
A|--------------------------
E|--5--5--8--8--7--7--6--6--

DEAL, DEAL, DEAL! WITH! IT!
G|-----------------
D|-----------------
A|-----------------
E|--5--8--8--7--6--


Chorus riff

CECI
Mechanical!

MAEVE
Mechanical!

CECI
Mechanical!

MAEVE
Mechanical! etc

TOGETHER
MECHANICAL, MECHANICAL SOUL! 

 
tabs and chords, guitar tabs, music transcription, music technology, deep learning, music information retrieval, transcribe into tabs & chords, chordify, music renditions, songsterr, reverbnation, tabulature, bollywood chords, ultimate guitar, yousician, guitar lessons, acoustic guitar, electric guitar, guitar tuner, 911 tabs