Mechanical Soul - Bass Tabs

(/) Slide Up  (\) Slide Down  (h) Hammer On  (p) Pull Off  (b) Bend (r) Release (v) Vibrato (x) Muted

Mechanical Soul 
Intro: no bass 
Don't smile, don't smile too much...
Smashy A chord before chorus
 
G|--------------
D|--------------
A|--0--0--0--0--
E|--------------

CHORUS
When I walk through that door, people lie to everyone
They sold their souls long time ago, they don't have a heart, they don't need one because...
G|-----------------------------------------
D|-----------------------------------------
A|--0--0--3--0--0--3--0--0--3--0--0--3--5--
E|-----------------------------------------
I don't wanna hear it, I don't wanna hear it (then back to first bit)
G|--------------------------
D|--------------------------
A|--5--5--5--5--6--6--6--6--
E|--------------------------

Breakdown: deal, deal, deal with it x 8
G|---------------------------
D|--------------------------
A|--------------------------
E|--5--5--8--8--7--7--6--6--

DEAL, DEAL, DEAL! WITH! IT!
G|-----------------
D|-----------------
A|-----------------
E|--5--8--8--7--6--

Mechanical, mechanical... chorus riff

 
tabs and chords, guitar tabs, music transcription, music technology, deep learning, music information retrieval, transcribe into tabs & chords, chordify, music renditions, songsterr, reverbnation, tabulature, bollywood chords, ultimate guitar, yousician, guitar lessons, acoustic guitar, electric guitar, guitar tuner, 911 tabs